  0
SECTION
  2
HEADER
  9
$ACADVER
  1
AC1032
  9
$ACADMAINTVER
 90
      174
  9
$DWGCODEPAGE
  3
ANSI_1252
  9
$REQUIREDVERSIONS
160
                 0
  9
$INSBASE
 10
0.0
 20
0.0
 30
0.0
  9
$EXTMIN
 10
-385.0000102043152
 20
-408.8958990097045
 30
0.0
  9
$EXTMAX
 10
385.0000102043152
 20
280.0000057697296
 30
740.000034713745
  9
$LIMMIN
 10
0.0
 20
0.0
  9
$LIMMAX
 10
12.0
 20
9.0
  9
$ORTHOMODE
 70
     0
  9
$REGENMODE
 70
     1
  9
$FILLMODE
 70
     1
  9
$QTEXTMODE
 70
     0
  9
$MIRRTEXT
 70
     0
  9
$LTSCALE
 40
1.0
  9
$ATTMODE
 70
     1
  9
$TEXTSIZE
 40
0.2
  9
$TRACEWID
 40
0.05
  9
$TEXTSTYLE
  7
Standard
  9
$CLAYER
  8
0
  9
$CELTYPE
  6
ByLayer
  9
$CECOLOR
 62
   256
  9
$CELTSCALE
 40
1.0
  9
$DISPSILH
 70
     0
  9
$DIMSCALE
 40
1.0
  9
$DIMASZ
 40
0.18
  9
$DIMEXO
 40
0.0625
  9
$DIMDLI
 40
0.38
  9
$DIMRND
 40
0.0
  9
$DIMDLE
 40
0.0
  9
$DIMEXE
 40
0.18
  9
$DIMTP
 40
0.0
  9
$DIMTM
 40
0.0
  9
$DIMTXT
 40
0.18
  9
$DIMCEN
 40
0.09
  9
$DIMTSZ
 40
0.0
  9
$DIMTOL
 70
     0
  9
$DIMLIM
 70
     0
  9
$DIMTIH
 70
     1
  9
$DIMTOH
 70
     1
  9
$DIMSE1
 70
     0
  9
$DIMSE2
 70
     0
  9
$DIMTAD
 70
     0
  9
$DIMZIN
 70
     0
  9
$DIMBLK
  1

  9
$DIMASO
 70
     1
  9
$DIMSHO
 70
     1
  9
$DIMPOST
  1

  9
$DIMAPOST
  1

  9
$DIMALT
 70
     0
  9
$DIMALTD
 70
     2
  9
$DIMALTF
 40
25.4
  9
$DIMLFAC
 40
1.0
  9
$DIMTOFL
 70
     0
  9
$DIMTVP
 40
0.0
  9
$DIMTIX
 70
     0
  9
$DIMSOXD
 70
     0
  9
$DIMSAH
 70
     0
  9
$DIMBLK1
  1

  9
$DIMBLK2
  1

  9
$DIMSTYLE
  2
Standard
  9
$DIMCLRD
 70
     0
  9
$DIMCLRE
 70
     0
  9
$DIMCLRT
 70
     0
  9
$DIMTFAC
 40
1.0
  9
$DIMGAP
 40
0.09
  9
$DIMJUST
 70
     0
  9
$DIMSD1
 70
     0
  9
$DIMSD2
 70
     0
  9
$DIMTOLJ
 70
     1
  9
$DIMTZIN
 70
     0
  9
$DIMALTZ
 70
     0
  9
$DIMALTTZ
 70
     0
  9
$DIMUPT
 70
     0
  9
$DIMDEC
 70
     4
  9
$DIMTDEC
 70
     4
  9
$DIMALTU
 70
     2
  9
$DIMALTTD
 70
     2
  9
$DIMTXSTY
  7
Standard
  9
$DIMAUNIT
 70
     0
  9
$DIMADEC
 70
     0
  9
$DIMALTRND
 40
0.0
  9
$DIMAZIN
 70
     0
  9
$DIMDSEP
 70
    46
  9
$DIMATFIT
 70
     3
  9
$DIMFRAC
 70
     0
  9
$DIMLDRBLK
  1

  9
$DIMLUNIT
 70
     2
  9
$DIMLWD
 70
    -2
  9
$DIMLWE
 70
    -2
  9
$DIMTMOVE
 70
     0
  9
$DIMFXL
 40
1.0
  9
$DIMFXLON
 70
     0
  9
$DIMJOGANG
 40
0.7853981633974483
  9
$DIMTFILL
 70
     0
  9
$DIMTFILLCLR
 70
     0
  9
$DIMARCSYM
 70
     0
  9
$DIMLTYPE
  6

  9
$DIMLTEX1
  6

  9
$DIMLTEX2
  6

  9
$DIMTXTDIRECTION
 70
     0
  9
$LUNITS
 70
     2
  9
$LUPREC
 70
     4
  9
$SKETCHINC
 40
0.1
  9
$FILLETRAD
 40
0.0
  9
$AUNITS
 70
     0
  9
$AUPREC
 70
     0
  9
$MENU
  1
.
  9
$ELEVATION
 40
0.0
  9
$PELEVATION
 40
0.0
  9
$THICKNESS
 40
0.0
  9
$LIMCHECK
 70
     0
  9
$CHAMFERA
 40
0.0
  9
$CHAMFERB
 40
0.0
  9
$CHAMFERC
 40
0.0
  9
$CHAMFERD
 40
0.0
  9
$SKPOLY
 70
     0
  9
$TDCREATE
 40
2459248.663032408
  9
$TDUCREATE
 40
2459248.871365741
  9
$TDUPDATE
 40
2459248.663032408
  9
$TDUUPDATE
 40
2459248.871365741
  9
$TDINDWG
 40
0.0000000000
  9
$TDUSRTIMER
 40
0.0000000000
  9
$USRTIMER
 70
     1
  9
$ANGBASE
 50
0.0
  9
$ANGDIR
 70
     0
  9
$PDMODE
 70
     0
  9
$PDSIZE
 40
0.0
  9
$PLINEWID
 40
0.0
  9
$SPLFRAME
 70
     0
  9
$SPLINETYPE
 70
     6
  9
$SPLINESEGS
 70
     8
  9
$HANDSEED
  5
3DD
  9
$SURFTAB1
 70
     6
  9
$SURFTAB2
 70
     6
  9
$SURFTYPE
 70
     6
  9
$SURFU
 70
     6
  9
$SURFV
 70
     6
  9
$UCSBASE
  2

  9
$UCSNAME
  2

  9
$UCSORG
 10
0.0
 20
0.0
 30
0.0
  9
$UCSXDIR
 10
1.0
 20
0.0
 30
0.0
  9
$UCSYDIR
 10
0.0
 20
1.0
 30
0.0
  9
$UCSORTHOREF
  2

  9
$UCSORTHOVIEW
 70
     0
  9
$UCSORGTOP
 10
0.0
 20
0.0
 30
0.0
  9
$UCSORGBOTTOM
 10
0.0
 20
0.0
 30
0.0
  9
$UCSORGLEFT
 10
0.0
 20
0.0
 30
0.0
  9
$UCSORGRIGHT
 10
0.0
 20
0.0
 30
0.0
  9
$UCSORGFRONT
 10
0.0
 20
0.0
 30
0.0
  9
$UCSORGBACK
 10
0.0
 20
0.0
 30
0.0
  9
$PUCSBASE
  2

  9
$PUCSNAME
  2

  9
$PUCSORG
 10
0.0
 20
0.0
 30
0.0
  9
$PUCSXDIR
 10
1.0
 20
0.0
 30
0.0
  9
$PUCSYDIR
 10
0.0
 20
1.0
 30
0.0
  9
$PUCSORTHOREF
  2

  9
$PUCSORTHOVIEW
 70
     0
  9
$PUCSORGTOP
 10
0.0
 20
0.0
 30
0.0
  9
$PUCSORGBOTTOM
 10
0.0
 20
0.0
 30
0.0
  9
$PUCSORGLEFT
 10
0.0
 20
0.0
 30
0.0
  9
$PUCSORGRIGHT
 10
0.0
 20
0.0
 30
0.0
  9
$PUCSORGFRONT
 10
0.0
 20
0.0
 30
0.0
  9
$PUCSORGBACK
 10
0.0
 20
0.0
 30
0.0
  9
$USERI1
 70
     0
  9
$USERI2
 70
     0
  9
$USERI3
 70
     0
  9
$USERI4
 70
     0
  9
$USERI5
 70
     0
  9
$USERR1
 40
0.0
  9
$USERR2
 40
0.0
  9
$USERR3
 40
0.0
  9
$USERR4
 40
0.0
  9
$USERR5
 40
0.0
  9
$WORLDVIEW
 70
     1
  9
$SHADEDGE
 70
     3
  9
$SHADEDIF
 70
    70
  9
$TILEMODE
 70
     1
  9
$MAXACTVP
 70
    64
  9
$PINSBASE
 10
0.0
 20
0.0
 30
0.0
  9
$PLIMCHECK
 70
     0
  9
$PEXTMIN
 10
1.000000000000000E+20
 20
1.000000000000000E+20
 30
1.000000000000000E+20
  9
$PEXTMAX
 10
-1.000000000000000E+20
 20
-1.000000000000000E+20
 30
-1.000000000000000E+20
  9
$PLIMMIN
 10
0.0
 20
0.0
  9
$PLIMMAX
 10
12.0
 20
9.0
  9
$UNITMODE
 70
     0
  9
$VISRETAIN
 70
     1
  9
$PLINEGEN
 70
     0
  9
$PSLTSCALE
 70
     1
  9
$TREEDEPTH
 70
  3020
  9
$CMLSTYLE
  2
Standard
  9
$CMLJUST
 70
     0
  9
$CMLSCALE
 40
1.0
  9
$PROXYGRAPHICS
 70
     1
  9
$MEASUREMENT
 70
     1
  9
$CELWEIGHT
370
    -1
  9
$ENDCAPS
280
     0
  9
$JOINSTYLE
280
     0
  9
$LWDISPLAY
290
     0
  9
$INSUNITS
 70
     4
  9
$HYPERLINKBASE
  1

  9
$STYLESHEET
  1

  9
$XEDIT
290
     1
  9
$CEPSNTYPE
380
     0
  9
$PSTYLEMODE
290
     1
  9
$FINGERPRINTGUID
  2
{B2595284-815F-2D4D-A7A0-A308ACF43BC8}
  9
$VERSIONGUID
  2
{9C831CC2-3F9B-B64D-B4D0-3318920A5094}
  9
$EXTNAMES
290
     1
  9
$PSVPSCALE
 40
0.0
  9
$OLESTARTUP
290
     0
  9
$SORTENTS
280
   127
  9
$INDEXCTL
280
     0
  9
$HIDETEXT
280
     1
  9
$XCLIPFRAME
280
     2
  9
$HALOGAP
280
     0
  9
$OBSCOLOR
 70
   257
  9
$OBSLTYPE
280
     0
  9
$INTERSECTIONDISPLAY
280
     0
  9
$INTERSECTIONCOLOR
 70
   257
  9
$DIMASSOC
280
     2
  9
$PROJECTNAME
  1

  9
$CAMERADISPLAY
290
     0
  9
$LENSLENGTH
 40
50.0
  9
$CAMERAHEIGHT
 40
0.0
  9
$STEPSPERSEC
 40
2.0
  9
$STEPSIZE
 40
6.0
  9
$3DDWFPREC
 40
2.0
  9
$PSOLWIDTH
 40
0.25
  9
$PSOLHEIGHT
 40
4.0
  9
$LOFTANG1
 40
1.570796326794896
  9
$LOFTANG2
 40
1.570796326794896
  9
$LOFTMAG1
 40
0.0
  9
$LOFTMAG2
 40
0.0
  9
$LOFTPARAM
 70
     7
  9
$LOFTNORMALS
280
     1
  9
$LATITUDE
 40
37.795
  9
$LONGITUDE
 40
-122.394
  9
$NORTHDIRECTION
 40
0.0
  9
$TIMEZONE
 70
 -8000
  9
$LIGHTGLYPHDISPLAY
280
     1
  9
$TILEMODELIGHTSYNCH
280
     1
  9
$CMATERIAL
347
11
  9
$SOLIDHIST
280
     0
  9
$SHOWHIST
280
     1
  9
$DWFFRAME
280
     2
  9
$DGNFRAME
280
     0
  9
$REALWORLDSCALE
290
     1
  9
$INTERFERECOLOR
 62
     1
  9
$INTERFEREOBJVS
345
33
  9
$INTERFEREVPVS
346
30
  9
$CSHADOW
280
     0
  9
$SHADOWPLANELOCATION
 40
0.0
  0
ENDSEC
  0
SECTION
  2
CLASSES
  0
CLASS
  1
ACDBDICTIONARYWDFLT
  2
AcDbDictionaryWithDefault
  3
ObjectDBX Classes
 90
        0
 91
        1
280
     0
281
     0
  0
CLASS
  1
MATERIAL
  2
AcDbMaterial
  3
ObjectDBX Classes
 90
     1153
 91
        3
280
     0
281
     0
  0
CLASS
  1
VISUALSTYLE
  2
AcDbVisualStyle
  3
ObjectDBX Classes
 90
     4095
 91
       25
280
     0
281
     0
  0
CLASS
  1
SCALE
  2
AcDbScale
  3
ObjectDBX Classes
 90
     1153
 91
       17
280
     0
281
     0
  0
CLASS
  1
TABLESTYLE
  2
AcDbTableStyle
  3
ObjectDBX Classes
 90
     4095
 91
        1
280
     0
281
     0
  0
CLASS
  1
MLEADERSTYLE
  2
AcDbMLeaderStyle
  3
ACDB_MLEADERSTYLE_CLASS
 90
     4095
 91
        1
280
     0
281
     0
  0
CLASS
  1
ACDBSECTIONVIEWSTYLE
  2
AcDbSectionViewStyle
  3
ObjectDBX Classes
 90
     1025
 91
        1
280
     0
281
     0
  0
CLASS
  1
ACDBDETAILVIEWSTYLE
  2
AcDbDetailViewStyle
  3
ObjectDBX Classes
 90
     1025
 91
        1
280
     0
281
     0
  0
CLASS
  1
RASTERVARIABLES
  2
AcDbRasterVariables
  3
ISM
 90
        0
 91
        1
280
     0
281
     0
  0
CLASS
  1
DICTIONARYVAR
  2
AcDbDictionaryVar
  3
ObjectDBX Classes
 90
        0
 91
        5
280
     0
281
     0
  0
CLASS
  1
CELLSTYLEMAP
  2
AcDbCellStyleMap
  3
ObjectDBX Classes
 90
     1152
 91
        2
280
     0
281
     0
  0
ENDSEC
  0
SECTION
  2
TABLES
  0
TABLE
  2
VPORT
  5
8
330
0
100
AcDbSymbolTable
 70
     1
  0
VPORT
  5
57
330
8
100
AcDbSymbolTableRecord
100
AcDbViewportTableRecord
  2
*Active
 70
     0
 10
0.0
 20
0.0
 11
1.0
 21
1.0
 12
0.0
 22
-64.44794661998748
 13
0.0
 23
0.0
 14
1.0
 24
1.0
 15
0.0
 25
0.0
 16
-499.9662595254459
 26
-479.4388077016995
 36
152.5597396603705
 17
332.7437542701909
 27
-350.7356413042863
 37
347.918691159196
 40
688.8959047794342
 41
1.117730581741755
 42
50.0
 43
0.0
 44
0.0
 50
0.0
 51
0.0
 71
     0
 72
  1000
 73
     1
 74
     1
 75
     0
 76
     0
 77
     0
 78
     0
281
     1
 65
     1
110
0.0
120
0.0
130
0.0
111
1.0
121
0.0
131
0.0
112
0.0
122
1.0
132
0.0
 79
     0
146
0.0
348
3D5
 60
     3
 61
     5
292
     1
282
     1
141
0.0
142
0.0
 63
   250
421
  3355443
  0
ENDTAB
  0
TABLE
  2
LTYPE
  5
5
330
0
100
AcDbSymbolTable
 70
     1
  0
LTYPE
  5
5B
330
5
100
AcDbSymbolTableRecord
100
AcDbLinetypeTableRecord
  2
ByBlock
 70
     0
  3

 72
    65
 73
     0
 40
0.0
  0
LTYPE
  5
5C
330
5
100
AcDbSymbolTableRecord
100
AcDbLinetypeTableRecord
  2
ByLayer
 70
     0
  3

 72
    65
 73
     0
 40
0.0
  0
LTYPE
  5
5D
330
5
100
AcDbSymbolTableRecord
100
AcDbLinetypeTableRecord
  2
Continuous
 70
     0
  3
Solid line
 72
    65
 73
     0
 40
0.0
  0
ENDTAB
  0
TABLE
  2
LAYER
  5
2
330
0
100
AcDbSymbolTable
 70
     2
  0
LAYER
  5
54
330
2
100
AcDbSymbolTableRecord
100
AcDbLayerTableRecord
  2
0
 70
     0
 62
     7
  6
Continuous
370
    -3
390
F
347
21
348
0
  0
LAYER
  5
85
330
2
100
AcDbSymbolTableRecord
100
AcDbLayerTableRecord
  2
Q-SPCQ
 70
     0
 62
    91
  6
Continuous
370
    30
390
F
347
21
348
0
  0
ENDTAB
  0
TABLE
  2
STYLE
  5
3
330
0
100
AcDbSymbolTable
 70
     2
  0
STYLE
  5
55
330
3
100
AcDbSymbolTableRecord
100
AcDbTextStyleTableRecord
  2
Standard
 70
     0
 40
0.0
 41
1.0
 50
0.0
 71
     0
 42
0.2
  3
txt
  4

  0
STYLE
  5
5A
330
3
100
AcDbSymbolTableRecord
100
AcDbTextStyleTableRecord
  2
Annotative
 70
     0
 40
0.0
 41
1.0
 50
0.0
 71
     0
 42
0.2
  3
txt
  4

1001
AcadAnnotative
1000
AnnotativeData
1002
{
1070
     1
1070
     1
1002
}
  0
ENDTAB
  0
TABLE
  2
VIEW
  5
6
330
0
100
AcDbSymbolTable
 70
     1
  0
VIEW
  5
3D6
330
6
100
AcDbSymbolTableRecord
100
AcDbViewTableRecord
  2
_3D_
 70
     0
 40
60960.0
 10
0.0
 20
0.0
 41
60960.0
 11
-499.9662595254459
 21
-479.4388077016995
 31
152.5597396603705
 12
332.7437542701909
 22
-350.7356413042863
 32
347.918691159196
 42
50.0
 43
0.0
 44
0.0
 50
0.0
 71
     0
281
     1
 72
     0
 73
     0
348
3D5
  0
ENDTAB
  0
TABLE
  2
UCS
  5
7
330
0
100
AcDbSymbolTable
 70
     0
  0
ENDTAB
  0
TABLE
  2
APPID
  5
9
330
0
100
AcDbSymbolTable
 70
     3
  0
APPID
  5
56
330
9
100
AcDbSymbolTableRecord
100
AcDbRegAppTableRecord
  2
ACAD
 70
     0
  0
APPID
  5
5E
330
9
100
AcDbSymbolTableRecord
100
AcDbRegAppTableRecord
  2
AcadAnnotative
 70
     0
  0
APPID
  5
78
330
9
100
AcDbSymbolTableRecord
100
AcDbRegAppTableRecord
  2
REVIT
 70
     0
  0
ENDTAB
  0
TABLE
  2
DIMSTYLE
  5
A
330
0
100
AcDbSymbolTable
 70
     2
100
AcDbDimStyleTable
 71
     0
  0
DIMSTYLE
105
58
330
A
100
AcDbSymbolTableRecord
100
AcDbDimStyleTableRecord
  2
Standard
 70
     0
340
55
  0
DIMSTYLE
105
59
330
A
100
AcDbSymbolTableRecord
100
AcDbDimStyleTableRecord
  2
Annotative
 70
     0
340
55
1001
AcadAnnotative
1000
AnnotativeData
1002
{
1070
     1
1070
     1
1002
}
  0
ENDTAB
  0
TABLE
  2
BLOCK_RECORD
  5
1
330
0
100
AcDbSymbolTable
 70
     3
  0
BLOCK_RECORD
  5
70
330
1
100
AcDbSymbolTableRecord
100
AcDbBlockTableRecord
  2
*Model_Space
340
73
 70
     0
280
     1
281
     0
  0
BLOCK_RECORD
  5
6C
330
1
100
AcDbSymbolTableRecord
100
AcDbBlockTableRecord
  2
*Paper_Space
340
6F
 70
     0
280
     1
281
     0
  0
BLOCK_RECORD
  5
74
330
1
100
AcDbSymbolTableRecord
100
AcDbBlockTableRecord
  2
*Paper_Space0
340
77
 70
     0
280
     1
281
     0
  0
BLOCK_RECORD
  5
84
330
1
100
AcDbSymbolTableRecord
100
AcDbBlockTableRecord
  2
FamilyGeomCombination_6960-_3D_
340
0
102
{BLKREFS
331
DA
102
}
 70
     0
280
     1
281
     0
  0
BLOCK_RECORD
  5
12F
330
1
100
AcDbSymbolTableRecord
100
AcDbBlockTableRecord
  2
FamilyGeomCombination_15715-_3D_
340
0
102
{BLKREFS
331
3D4
102
}
 70
     0
280
     1
281
     0
  0
ENDTAB
  0
ENDSEC
  0
SECTION
  2
BLOCKS
  0
BLOCK
  5
71
330
70
100
AcDbEntity
  8
0
100
AcDbBlockBegin
  2
*Model_Space
 70
     0
 10
0.0
 20
0.0
 30
0.0
  3
*Model_Space
  1

  0
ENDBLK
  5
72
330
70
100
AcDbEntity
  8
0
100
AcDbBlockEnd
  0
BLOCK
  5
6D
330
6C
100
AcDbEntity
 67
     1
  8
0
100
AcDbBlockBegin
  2
*Paper_Space
 70
     0
 10
0.0
 20
0.0
 30
0.0
  3
*Paper_Space
  1

  0
ENDBLK
  5
6E
330
6C
100
AcDbEntity
 67
     1
  8
0
100
AcDbBlockEnd
  0
BLOCK
  5
75
330
74
100
AcDbEntity
 67
     1
  8
0
100
AcDbBlockBegin
  2
*Paper_Space0
 70
     0
 10
0.0
 20
0.0
 30
0.0
  3
*Paper_Space0
  1

  0
ENDBLK
  5
76
330
74
100
AcDbEntity
 67
     1
  8
0
100
AcDbBlockEnd
  0
BLOCK
  5
D8
330
84
100
AcDbEntity
  8
0
100
AcDbBlockBegin
  2
FamilyGeomCombination_6960-_3D_
 70
     0
 10
0.0
 20
0.0
 30
0.0
  3
FamilyGeomCombination_6960-_3D_
  1

  0
POLYLINE
  5
86
330
84
100
AcDbEntity
  8
Q-SPCQ
100
AcDbPolyFaceMesh
 66
     1
 10
0.0
 20
0.0
 30
0.0
 70
    64
 71
     4
 72
     1
1001
REVIT
1002
{
1070
     2
1000
-2001350
1002
}
  0
VERTEX
  5
87
330
86
100
AcDbEntity
  8
Q-SPCQ
100
AcDbVertex
100
AcDbPolyFaceMeshVertex
 10
361.9999969482422
 20
-290.016472864151
 30
678.999979019165
 70
   192
  0
VERTEX
  5
88
330
86
100
AcDbEntity
  8
Q-SPCQ
100
AcDbVertex
100
AcDbPolyFaceMeshVertex
 10
361.9999969482422
 20
197.2124354839325
 30
678.999979019165
 70
   192
  0
VERTEX
  5
89
330
86
100
AcDbEntity
  8
Q-SPCQ
100
AcDbVertex
100
AcDbPolyFaceMeshVertex
 10
-360.0000100135803
 20
197.2124354839325
 30
678.999979019165
 70
   192
  0
VERTEX
  5
8A
330
86
100
AcDbEntity
  8
Q-SPCQ
100
AcDbVertex
100
AcDbPolyFaceMeshVertex
 10
-360.0000100135803
 20
-290.016472864151
 30
678.999979019165
 70
   192
  0
VERTEX
  5
8B
330
86
100
AcDbEntity
  8
Q-SPCQ
100
AcDbFaceRecord
 10
0.0
 20
0.0
 30
0.0
 70
   128
 71
     1
 72
     2
 73
     3
 74
     4
  0
SEQEND
  5
8C
330
86
100
AcDbEntity
  8
Q-SPCQ
  0
POLYLINE
  5
8D
330
84
100
AcDbEntity
  8
Q-SPCQ
100
AcDbPolyFaceMesh
 66
     1
 10
0.0
 20
0.0
 30
0.0
 70
    64
 71
     8
 72
     3
1001
REVIT
1002
{
1070
     2
1000
-2001350
1002
}
  0
VERTEX
  5
8E
330
8D
100
AcDbEntity
  8
Q-SPCQ
100
AcDbVertex
100
AcDbPolyFaceMeshVertex
 10
361.9999969482422
 20
-290.016472864151
 30
0.0
 70
   192
  0
VERTEX
  5
8F
330
8D
100
AcDbEntity
  8
Q-SPCQ
100
AcDbVertex
100
AcDbPolyFaceMeshVertex
 10
-360.0000100135803
 20
-290.016472864151
 30
0.0
 70
   192
  0
VERTEX
  5
90
330
8D
100
AcDbEntity
  8
Q-SPCQ
100
AcDbVertex
100
AcDbPolyFaceMeshVertex
 10
-360.0000100135803
 20
197.2124354839325
 30
0.0
 70
   192
  0
VERTEX
  5
91
330
8D
100
AcDbEntity
  8
Q-SPCQ
100
AcDbVertex
100
AcDbPolyFaceMeshVertex
 10
-332.0000112533569
 20
197.2124354839325
 30
0.0
 70
   192
  0
VERTEX
  5
92
330
8D
100
AcDbEntity
  8
Q-SPCQ
100
AcDbVertex
100
AcDbPolyFaceMeshVertex
 10
-332.0000112533569
 20
280.0000057697296
 30
0.0
 70
   192
  0
VERTEX
  5
93
330
8D
100
AcDbEntity
  8
Q-SPCQ
100
AcDbVertex
100
AcDbPolyFaceMeshVertex
 10
332.0000112533569
 20
280.0000057697296
 30
0.0
 70
   192
  0
VERTEX
  5
94
330
8D
100
AcDbEntity
  8
Q-SPCQ
100
AcDbVertex
100
AcDbPolyFaceMeshVertex
 10
332.0000112533569
 20
197.2124354839325
 30
0.0
 70
   192
  0
VERTEX
  5
95
330
8D
100
AcDbEntity
  8
Q-SPCQ
100
AcDbVertex
100
AcDbPolyFaceMeshVertex
 10
361.9999969482422
 20
197.2124354839325
 30
0.0
 70
   192
  0
VERTEX
  5
96
330
8D
100
AcDbEntity
  8
Q-SPCQ
100
AcDbFaceRecord
 10
0.0
 20
0.0
 30
0.0
 70
   128
 71
    -4
 72
    -7
 73
     2
 74
     3
  0
VERTEX
  5
97
330
8D
100
AcDbEntity
  8
Q-SPCQ
100
AcDbFaceRecord
 10
0.0
 20
0.0
 30
0.0
 70
   128
 71
     4
 72
     5
 73
     6
 74
    -7
  0
VERTEX
  5
98
330
8D
100
AcDbEntity
  8
Q-SPCQ
100
AcDbFaceRecord
 10
0.0
 20
0.0
 30
0.0
 70
   128
 71
     1
 72
    -2
 73
     7
 74
     8
  0
SEQEND
  5
99
330
8D
100
AcDbEntity
  8
Q-SPCQ
  0
POLYLINE
  5
9A
330
84
100
AcDbEntity
  8
Q-SPCQ
100
AcDbPolyFaceMesh
 66
     1
 10
0.0
 20
0.0
 30
0.0
 70
    64
 71
     4
 72
     1
1001
REVIT
1002
{
1070
     2
1000
-2001350
1002
}
  0
VERTEX
  5
9B
330
9A
100
AcDbEntity
  8
Q-SPCQ
100
AcDbVertex
100
AcDbPolyFaceMeshVertex
 10
332.0000112533569
 20
280.0000057697296
 30
0.0
 70
   192
  0
VERTEX
  5
9C
330
9A
100
AcDbEntity
  8
Q-SPCQ
100
AcDbVertex
100
AcDbPolyFaceMeshVertex
 10
-332.0000112533569
 20
280.0000057697296
 30
0.0
 70
   192
  0
VERTEX
  5
9D
330
9A
100
AcDbEntity
  8
Q-SPCQ
100
AcDbVertex
100
AcDbPolyFaceMeshVertex
 10
-332.0000112533569
 20
280.0000057697296
 30
602.7773786544799
 70
   192
  0
VERTEX
  5
9E
330
9A
100
AcDbEntity
  8
Q-SPCQ
100
AcDbVertex
100
AcDbPolyFaceMeshVertex
 10
332.0000112533569
 20
280.0000057697296
 30
602.7773786544799
 70
   192
  0
VERTEX
  5
9F
330
9A
100
AcDbEntity
  8
Q-SPCQ
100
AcDbFaceRecord
 10
0.0
 20
0.0
 30
0.0
 70
   128
 71
     1
 72
     2
 73
     3
 74
     4
  0
SEQEND
  5
A0
330
9A
100
AcDbEntity
  8
Q-SPCQ
  0
POLYLINE
  5
A1
330
84
100
AcDbEntity
  8
Q-SPCQ
100
AcDbPolyFaceMesh
 66
     1
 10
0.0
 20
0.0
 30
0.0
 70
    64
 71
     4
 72
     1
1001
REVIT
1002
{
1070
     2
1000
-2001350
1002
}
  0
VERTEX
  5
A2
330
A1
100
AcDbEntity
  8
Q-SPCQ
100
AcDbVertex
100
AcDbPolyFaceMeshVertex
 10
-360.0000100135803
 20
-290.016472864151
 30
678.999979019165
 70
   192
  0
VERTEX
  5
A3
330
A1
100
AcDbEntity
  8
Q-SPCQ
100
AcDbVertex
100
AcDbPolyFaceMeshVertex
 10
-360.0000100135803
 20
197.2124354839325
 30
678.999979019165
 70
   192
  0
VERTEX
  5
A4
330
A1
100
AcDbEntity
  8
Q-SPCQ
100
AcDbVertex
100
AcDbPolyFaceMeshVertex
 10
-360.0000100135803
 20
197.2124354839325
 30
0.0
 70
   192
  0
VERTEX
  5
A5
330
A1
100
AcDbEntity
  8
Q-SPCQ
100
AcDbVertex
100
AcDbPolyFaceMeshVertex
 10
-360.0000100135803
 20
-290.016472864151
 30
0.0
 70
   192
  0
VERTEX
  5
A6
330
A1
100
AcDbEntity
  8
Q-SPCQ
100
AcDbFaceRecord
 10
0.0
 20
0.0
 30
0.0
 70
   128
 71
     1
 72
     2
 73
     3
 74
     4
  0
SEQEND
  5
A7
330
A1
100
AcDbEntity
  8
Q-SPCQ
  0
POLYLINE
  5
A8
330
84
100
AcDbEntity
  8
Q-SPCQ
100
AcDbPolyFaceMesh
 66
     1
 10
0.0
 20
0.0
 30
0.0
 70
    64
 71
     4
 72
     1
1001
REVIT
1002
{
1070
     2
1000
-2001350
1002
}
  0
VERTEX
  5
A9
330
A8
100
AcDbEntity
  8
Q-SPCQ
100
AcDbVertex
100
AcDbPolyFaceMeshVertex
 10
-360.0000100135803
 20
-290.016472864151
 30
678.999979019165
 70
   192
  0
VERTEX
  5
AA
330
A8
100
AcDbEntity
  8
Q-SPCQ
100
AcDbVertex
100
AcDbPolyFaceMeshVertex
 10
-360.0000100135803
 20
-290.016472864151
 30
0.0
 70
   192
  0
VERTEX
  5
AB
330
A8
100
AcDbEntity
  8
Q-SPCQ
100
AcDbVertex
100
AcDbPolyFaceMeshVertex
 10
361.9999969482422
 20
-290.016472864151
 30
0.0
 70
   192
  0
VERTEX
  5
AC
330
A8
100
AcDbEntity
  8
Q-SPCQ
100
AcDbVertex
100
AcDbPolyFaceMeshVertex
 10
361.9999969482422
 20
-290.016472864151
 30
678.999979019165
 70
   192
  0
VERTEX
  5
AD
330
A8
100
AcDbEntity
  8
Q-SPCQ
100
AcDbFaceRecord
 10
0.0
 20
0.0
 30
0.0
 70
   128
 71
     1
 72
     2
 73
     3
 74
     4
  0
SEQEND
  5
AE
330
A8
100
AcDbEntity
  8
Q-SPCQ
  0
POLYLINE
  5
AF
330
84
100
AcDbEntity
  8
Q-SPCQ
100
AcDbPolyFaceMesh
 66
     1
 10
0.0
 20
0.0
 30
0.0
 70
    64
 71
     4
 72
     1
1001
REVIT
1002
{
1070
     2
1000
-2001350
1002
}
  0
VERTEX
  5
B0
330
AF
100
AcDbEntity
  8
Q-SPCQ
100
AcDbVertex
100
AcDbPolyFaceMeshVertex
 10
361.9999969482422
 20
-290.016472864151
 30
0.0
 70
   192
  0
VERTEX
  5
B1
330
AF
100
AcDbEntity
  8
Q-SPCQ
100
AcDbVertex
100
AcDbPolyFaceMeshVertex
 10
361.9999969482422
 20
197.2124354839325
 30
0.0
 70
   192
  0
VERTEX
  5
B2
330
AF
100
AcDbEntity
  8
Q-SPCQ
100
AcDbVertex
100
AcDbPolyFaceMeshVertex
 10
361.9999969482422
 20
197.2124354839325
 30
678.999979019165
 70
   192
  0
VERTEX
  5
B3
330
AF
100
AcDbEntity
  8
Q-SPCQ
100
AcDbVertex
100
AcDbPolyFaceMeshVertex
 10
361.9999969482422
 20
-290.016472864151
 30
678.999979019165
 70
   192
  0
VERTEX
  5
B4
330
AF
100
AcDbEntity
  8
Q-SPCQ
100
AcDbFaceRecord
 10
0.0
 20
0.0
 30
0.0
 70
   128
 71
     1
 72
     2
 73
     3
 74
     4
  0
SEQEND
  5
B5
330
AF
100
AcDbEntity
  8
Q-SPCQ
  0
POLYLINE
  5
B6
330
84
100
AcDbEntity
  8
Q-SPCQ
100
AcDbPolyFaceMesh
 66
     1
 10
0.0
 20
0.0
 30
0.0
 70
    64
 71
     8
 72
     3
1001
REVIT
1002
{
1070
     2
1000
-2001350
1002
}
  0
VERTEX
  5
B7
330
B6
100
AcDbEntity
  8
Q-SPCQ
100
AcDbVertex
100
AcDbPolyFaceMeshVertex
 10
361.9999969482422
 20
197.2124354839325
 30
678.999979019165
 70
   192
  0
VERTEX
  5
B8
330
B6
100
AcDbEntity
  8
Q-SPCQ
100
AcDbVertex
100
AcDbPolyFaceMeshVertex
 10
361.9999969482422
 20
197.2124354839325
 30
0.0
 70
   192
  0
VERTEX
  5
B9
330
B6
100
AcDbEntity
  8
Q-SPCQ
100
AcDbVertex
100
AcDbPolyFaceMeshVertex
 10
332.0000112533569
 20
197.2124354839325
 30
0.0
 70
   192
  0
VERTEX
  5
BA
330
B6
100
AcDbEntity
  8
Q-SPCQ
100
AcDbVertex
100
AcDbPolyFaceMeshVertex
 10
332.0000112533569
 20
197.2124354839325
 30
602.7773786544799
 70
   192
  0
VERTEX
  5
BB
330
B6
100
AcDbEntity
  8
Q-SPCQ
100
AcDbVertex
100
AcDbPolyFaceMeshVertex
 10
-332.0000112533569
 20
197.2124354839325
 30
602.7773786544799
 70
   192
  0
VERTEX
  5
BC
330
B6
100
AcDbEntity
  8
Q-SPCQ
100
AcDbVertex
100
AcDbPolyFaceMeshVertex
 10
-332.0000112533569
 20
197.2124354839325
 30
0.0
 70
   192
  0
VERTEX
  5
BD
330
B6
100
AcDbEntity
  8
Q-SPCQ
100
AcDbVertex
100
AcDbPolyFaceMeshVertex
 10
-360.0000100135803
 20
197.2124354839325
 30
0.0
 70
   192
  0
VERTEX
  5
BE
330
B6
100
AcDbEntity
  8
Q-SPCQ
100
AcDbVertex
100
AcDbPolyFaceMeshVertex
 10
-360.0000100135803
 20
197.2124354839325
 30
678.999979019165
 70
   192
  0
VERTEX
  5
BF
330
B6
100
AcDbEntity
  8
Q-SPCQ
100
AcDbFaceRecord
 10
0.0
 20
0.0
 30
0.0
 70
   128
 71
    -4
 72
     1
 73
     2
 74
     3
  0
VERTEX
  5
C0
330
B6
100
AcDbEntity
  8
Q-SPCQ
100
AcDbFaceRecord
 10
0.0
 20
0.0
 30
0.0
 70
   128
 71
     8
 72
    -1
 73
     4
 74
    -5
  0
VERTEX
  5
C1
330
B6
100
AcDbEntity
  8
Q-SPCQ
100
AcDbFaceRecord
 10
0.0
 20
0.0
 30
0.0
 70
   128
 71
     7
 72
    -8
 73
     5
 74
     6
  0
SEQEND
  5
C2
330
B6
100
AcDbEntity
  8
Q-SPCQ
  0
POLYLINE
  5
C3
330
84
100
AcDbEntity
  8
Q-SPCQ
100
AcDbPolyFaceMesh
 66
     1
 10
0.0
 20
0.0
 30
0.0
 70
    64
 71
     4
 72
     1
1001
REVIT
1002
{
1070
     2
1000
-2001350
1002
}
  0
VERTEX
  5
C4
330
C3
100
AcDbEntity
  8
Q-SPCQ
100
AcDbVertex
100
AcDbPolyFaceMeshVertex
 10
332.0000112533569
 20
280.0000057697296
 30
602.7773786544799
 70
   192
  0
VERTEX
  5
C5
330
C3
100
AcDbEntity
  8
Q-SPCQ
100
AcDbVertex
100
AcDbPolyFaceMeshVertex
 10
-332.0000112533569
 20
280.0000057697296
 30
602.7773786544799
 70
   192
  0
VERTEX
  5
C6
330
C3
100
AcDbEntity
  8
Q-SPCQ
100
AcDbVertex
100
AcDbPolyFaceMeshVertex
 10
-332.0000112533569
 20
197.2124354839325
 30
602.7773786544799
 70
   192
  0
VERTEX
  5
C7
330
C3
100
AcDbEntity
  8
Q-SPCQ
100
AcDbVertex
100
AcDbPolyFaceMeshVertex
 10
332.0000112533569
 20
197.2124354839325
 30
602.7773786544799
 70
   192
  0
VERTEX
  5
C8
330
C3
100
AcDbEntity
  8
Q-SPCQ
100
AcDbFaceRecord
 10
0.0
 20
0.0
 30
0.0
 70
   128
 71
     1
 72
     2
 73
     3
 74
     4
  0
SEQEND
  5
C9
330
C3
100
AcDbEntity
  8
Q-SPCQ
  0
POLYLINE
  5
CA
330
84
100
AcDbEntity
  8
Q-SPCQ
100
AcDbPolyFaceMesh
 66
     1
 10
0.0
 20
0.0
 30
0.0
 70
    64
 71
     4
 72
     1
1001
REVIT
1002
{
1070
     2
1000
-2001350
1002
}
  0
VERTEX
  5
CB
330
CA
100
AcDbEntity
  8
Q-SPCQ
100
AcDbVertex
100
AcDbPolyFaceMeshVertex
 10
332.0000112533569
 20
197.2124354839325
 30
0.0000000000000338
 70
   192
  0
VERTEX
  5
CC
330
CA
100
AcDbEntity
  8
Q-SPCQ
100
AcDbVertex
100
AcDbPolyFaceMeshVertex
 10
332.0000112533569
 20
280.0000057697296
 30
0.0
 70
   192
  0
VERTEX
  5
CD
330
CA
100
AcDbEntity
  8
Q-SPCQ
100
AcDbVertex
100
AcDbPolyFaceMeshVertex
 10
332.0000112533569
 20
280.0000057697296
 30
602.7773786544799
 70
   192
  0
VERTEX
  5
CE
330
CA
100
AcDbEntity
  8
Q-SPCQ
100
AcDbVertex
100
AcDbPolyFaceMeshVertex
 10
332.0000112533569
 20
197.2124354839325
 30
602.7773786544799
 70
   192
  0
VERTEX
  5
CF
330
CA
100
AcDbEntity
  8
Q-SPCQ
100
AcDbFaceRecord
 10
0.0
 20
0.0
 30
0.0
 70
   128
 71
     1
 72
     2
 73
     3
 74
     4
  0
SEQEND
  5
D0
330
CA
100
AcDbEntity
  8
Q-SPCQ
  0
POLYLINE
  5
D1
330
84
100
AcDbEntity
  8
Q-SPCQ
100
AcDbPolyFaceMesh
 66
     1
 10
0.0
 20
0.0
 30
0.0
 70
    64
 71
     4
 72
     1
1001
REVIT
1002
{
1070
     2
1000
-2001350
1002
}
  0
VERTEX
  5
D2
330
D1
100
AcDbEntity
  8
Q-SPCQ
100
AcDbVertex
100
AcDbPolyFaceMeshVertex
 10
-332.0000112533569
 20
197.2124354839325
 30
602.7773786544799
 70
   192
  0
VERTEX
  5
D3
330
D1
100
AcDbEntity
  8
Q-SPCQ
100
AcDbVertex
100
AcDbPolyFaceMeshVertex
 10
-332.0000112533569
 20
280.0000057697296
 30
602.7773786544799
 70
   192
  0
VERTEX
  5
D4
330
D1
100
AcDbEntity
  8
Q-SPCQ
100
AcDbVertex
100
AcDbPolyFaceMeshVertex
 10
-332.0000112533569
 20
280.0000057697296
 30
0.0
 70
   192
  0
VERTEX
  5
D5
330
D1
100
AcDbEntity
  8
Q-SPCQ
100
AcDbVertex
100
AcDbPolyFaceMeshVertex
 10
-332.0000112533569
 20
197.2124354839325
 30
0.0
 70
   192
  0
VERTEX
  5
D6
330
D1
100
AcDbEntity
  8
Q-SPCQ
100
AcDbFaceRecord
 10
0.0
 20
0.0
 30
0.0
 70
   128
 71
     1
 72
     2
 73
     3
 74
     4
  0
SEQEND
  5
D7
330
D1
100
AcDbEntity
  8
Q-SPCQ
  0
ENDBLK
  5
D9
330
84
100
AcDbEntity
  8
0
100
AcDbBlockEnd
  0
BLOCK
  5
3D2
330
12F
100
AcDbEntity
  8
0
100
AcDbBlockBegin
  2
FamilyGeomCombination_15715-_3D_
 70
     0
 10
0.0
 20
0.0
 30
0.0
  3
FamilyGeomCombination_15715-_3D_
  1

  0
POLYLINE
  5
130
330
12F
100
AcDbEntity
  8
Q-SPCQ
100
AcDbPolyFaceMesh
 66
     1
 10
0.0
 20
0.0
 30
0.0
 70
    64
 71
     7
 72
     4
1001
REVIT
1002
{
1070
     2
1000
-2001350
1002
}
  0
VERTEX
  5
131
330
130
100
AcDbEntity
  8
Q-SPCQ
100
AcDbVertex
100
AcDbPolyFaceMeshVertex
 10
-280.3704046726227
 20
-316.8959186553955
 30
510.8184568405151
 70
   192
  0
VERTEX
  5
132
330
130
100
AcDbEntity
  8
Q-SPCQ
100
AcDbVertex
100
AcDbPolyFaceMeshVertex
 10
-280.3704046726227
 20
-316.8959186553955
 30
528.8184482574463
 70
   192
  0
VERTEX
  5
133
330
130
100
AcDbEntity
  8
Q-SPCQ
100
AcDbVertex
100
AcDbPolyFaceMeshVertex
 10
-280.3704046726227
 20
-360.5721044540405
 30
528.8184482574463
 70
   192
  0
VERTEX
  5
134
330
130
100
AcDbEntity
  8
Q-SPCQ
100
AcDbVertex
100
AcDbPolyFaceMeshVertex
 10
-280.3704046726227
 20
-359.3185472488404
 30
524.3958257675171
 70
   192
  0
VERTEX
  5
135
330
130
100
AcDbEntity
  8
Q-SPCQ
100
AcDbVertex
100
AcDbPolyFaceMeshVertex
 10
-280.3704046726227
 20
-358.8958986282349
 30
519.8184525489807
 70
   192
  0
VERTEX
  5
136
330
130
100
AcDbEntity
  8
Q-SPCQ
100
AcDbVertex
100
AcDbPolyFaceMeshVertex
 10
-280.3704046726227
 20
-359.3185472488404
 30
515.2410793304443
 70
   192
  0
VERTEX
  5
137
330
130
100
AcDbEntity
  8
Q-SPCQ
100
AcDbVertex
100
AcDbPolyFaceMeshVertex
 10
-280.3704046726227
 20
-360.5721044540405
 30
510.8184568405151
 70
   192
  0
VERTEX
  5
138
330
130
100
AcDbEntity
  8
Q-SPCQ
100
AcDbFaceRecord
 10
0.0
 20
0.0
 30
0.0
 70
   128
 71
     2
 72
     3
 73
    -4
  0
VERTEX
  5
139
330
130
100
AcDbEntity
  8
Q-SPCQ
100
AcDbFaceRecord
 10
0.0
 20
0.0
 30
0.0
 70
   128
 71
    -2
 72
     4
 73
    -5
 74
     1
  0
VERTEX
  5
13A
330
130
100
AcDbEntity
  8
Q-SPCQ
100
AcDbFaceRecord
 10
0.0
 20
0.0
 30
0.0
 70
   128
 71
     6
 72
     7
 73
    -1
  0
VERTEX
  5
13B
330
130
100
AcDbEntity
  8
Q-SPCQ
100
AcDbFaceRecord
 10
0.0
 20
0.0
 30
0.0
 70
   128
 71
    -1
 72
     5
 73
    -6
  0
SEQEND
  5
13C
330
130
100
AcDbEntity
  8
Q-SPCQ
  0
POLYLINE
  5
13D
330
12F
100
AcDbEntity
  8
Q-SPCQ
100
AcDbPolyFaceMesh
 66
     1
 10
0.0
 20
0.0
 30
0.0
 70
    64
 71
    25
 72
    13
1001
REVIT
1002
{
1070
     2
1000
-2001350
1002
}
  0
VERTEX
  5
13E
330
13D
100
AcDbEntity
  8
Q-SPCQ
100
AcDbVertex
100
AcDbPolyFaceMeshVertex
 10
-343.8070667266846
 20
-316.8959186553955
 30
528.8184482574463
 70
   192
  0
VERTEX
  5
13F
330
13D
100
AcDbEntity
  8
Q-SPCQ
100
AcDbVertex
100
AcDbPolyFaceMeshVertex
 10
-343.8070667266846
 20
-316.8959186553955
 30
510.8184568405151
 70
   192
  0
VERTEX
  5
140
330
13D
100
AcDbEntity
  8
Q-SPCQ
100
AcDbVertex
100
AcDbPolyFaceMeshVertex
 10
-343.8070667266846
 20
-360.5721044540405
 30
510.8184568405151
 70
   192
  0
VERTEX
  5
141
330
13D
100
AcDbEntity
  8
Q-SPCQ
100
AcDbVertex
100
AcDbPolyFaceMeshVertex
 10
-343.8070667266846
 20
-363.5532814979553
 30
505.2865270614624
 70
   192
  0
VERTEX
  5
142
330
13D
100
AcDbEntity
  8
Q-SPCQ
100
AcDbVertex
100
AcDbPolyFaceMeshVertex
 10
-343.8070667266846
 20
-367.8211169242859
 30
500.6716197967529
 70
   192
  0
VERTEX
  5
143
330
13D
100
AcDbEntity
  8
Q-SPCQ
100
AcDbVertex
100
AcDbPolyFaceMeshVertex
 10
-343.8070667266846
 20
-373.105242061615
 30
497.2671401023865
 70
   192
  0
VERTEX
  5
144
330
13D
100
AcDbEntity
  8
Q-SPCQ
100
AcDbVertex
100
AcDbPolyFaceMeshVertex
 10
-343.8070667266846
 20
-379.0717383384705
 30
495.2883001327514
 70
   192
  0
VERTEX
  5
145
330
13D
100
AcDbEntity
  8
Q-SPCQ
100
AcDbVertex
100
AcDbPolyFaceMeshVertex
 10
-343.8070667266846
 20
-385.3433395385743
 30
494.860382938385
 70
   192
  0
VERTEX
  5
146
330
13D
100
AcDbEntity
  8
Q-SPCQ
100
AcDbVertex
100
AcDbPolyFaceMeshVertex
 10
-343.8070667266846
 20
-391.5236309051514
 30
496.0104944229126
 70
   192
  0
VERTEX
  5
147
330
13D
100
AcDbEntity
  8
Q-SPCQ
100
AcDbVertex
100
AcDbPolyFaceMeshVertex
 10
-343.8070667266846
 20
-397.2217569351196
 30
498.6660736083984
 70
   192
  0
VERTEX
  5
148
330
13D
100
AcDbEntity
  8
Q-SPCQ
100
AcDbVertex
100
AcDbPolyFaceMeshVertex
 10
-343.8070667266846
 20
-402.077383518219
 30
502.6593618392944
 70
   192
  0
VERTEX
  5
149
330
13D
100
AcDbEntity
  8
Q-SPCQ
100
AcDbVertex
100
AcDbPolyFaceMeshVertex
 10
-343.8070667266846
 20
-405.7834073066711
 30
507.7379762649536
 70
   192
  0
VERTEX
  5
14A
330
13D
100
AcDbEntity
  8
Q-SPCQ
100
AcDbVertex
100
AcDbPolyFaceMeshVertex
 10
-343.8070667266846
 20
-408.1052132606506
 30
513.5806792259216
 70
   192
  0
VERTEX
  5
14B
330
13D
100
AcDbEntity
  8
Q-SPCQ
100
AcDbVertex
100
AcDbPolyFaceMeshVertex
 10
-343.8070667266846
 20
-408.8958990097045
 30
519.8184525489807
 70
   192
  0
VERTEX
  5
14C
330
13D
100
AcDbEntity
  8
Q-SPCQ
100
AcDbVertex
100
AcDbPolyFaceMeshVertex
 10
-343.8070667266846
 20
-408.1052132606506
 30
526.0562258720398
 70
   192
  0
VERTEX
  5
14D
330
13D
100
AcDbEntity
  8
Q-SPCQ
100
AcDbVertex
100
AcDbPolyFaceMeshVertex
 10
-343.8070667266846
 20
-405.7834073066711
 30
531.8989288330079
 70
   192
  0
VERTEX
  5
14E
330
13D
100
AcDbEntity
  8
Q-SPCQ
100
AcDbVertex
100
AcDbPolyFaceMeshVertex
 10
-343.8070667266846
 20
-402.077383518219
 30
536.9775069236756
 70
   192
  0
VERTEX
  5
14F
330
13D
100
AcDbEntity
  8
Q-SPCQ
100
AcDbVertex
100
AcDbPolyFaceMeshVertex
 10
-343.8070667266846
 20
-397.2217569351196
 30
540.9707951545715
 70
   192
  0
VERTEX
  5
150
330
13D
100
AcDbEntity
  8
Q-SPCQ
100
AcDbVertex
100
AcDbPolyFaceMeshVertex
 10
-343.8070667266846
 20
-391.5236309051514
 30
543.6263743400574
 70
   192
  0
VERTEX
  5
151
330
13D
100
AcDbEntity
  8
Q-SPCQ
100
AcDbVertex
100
AcDbPolyFaceMeshVertex
 10
-343.8070667266846
 20
-385.3433395385743
 30
544.7765221595764
 70
   192
  0
VERTEX
  5
152
330
13D
100
AcDbEntity
  8
Q-SPCQ
100
AcDbVertex
100
AcDbPolyFaceMeshVertex
 10
-343.8070667266846
 20
-379.0717383384705
 30
544.3485686302185
 70
   192
  0
VERTEX
  5
153
330
13D
100
AcDbEntity
  8
Q-SPCQ
100
AcDbVertex
100
AcDbPolyFaceMeshVertex
 10
-343.8070667266846
 20
-373.105242061615
 30
542.369764995575
 70
   192
  0
VERTEX
  5
154
330
13D
100
AcDbEntity
  8
Q-SPCQ
100
AcDbVertex
100
AcDbPolyFaceMeshVertex
 10
-343.8070667266846
 20
-367.8211169242859
 30
538.965248966217
 70
   192
  0
VERTEX
  5
155
330
13D
100
AcDbEntity
  8
Q-SPCQ
100
AcDbVertex
100
AcDbPolyFaceMeshVertex
 10
-343.8070667266846
 20
-363.5532814979553
 30
534.350378036499
 70
   192
  0
VERTEX
  5
156
330
13D
100
AcDbEntity
  8
Q-SPCQ
100
AcDbVertex
100
AcDbPolyFaceMeshVertex
 10
-343.8070667266846
 20
-360.5721044540405
 30
528.8184482574463
 70
   192
  0
VERTEX
  5
157
330
13D
100
AcDbEntity
  8
Q-SPCQ
100
AcDbFaceRecord
 10
0.0
 20
0.0
 30
0.0
 70
   128
 71
    -3
 72
     8
 73
     9
 74
   -10
  0
VERTEX
  5
158
330
13D
100
AcDbEntity
  8
Q-SPCQ
100
AcDbFaceRecord
 10
0.0
 20
0.0
 30
0.0
 70
   128
 71
    11
 72
   -12
 73
    -3
 74
    10
  0
VERTEX
  5
159
330
13D
100
AcDbEntity
  8
Q-SPCQ
100
AcDbFaceRecord
 10
0.0
 20
0.0
 30
0.0
 70
   128
 71
   -16
 72
    -3
 73
    12
 74
   -13
  0
VERTEX
  5
15A
330
13D
100
AcDbEntity
  8
Q-SPCQ
100
AcDbFaceRecord
 10
0.0
 20
0.0
 30
0.0
 70
   128
 71
    -3
 72
     5
 73
     6
 74
    -7
  0
VERTEX
  5
15B
330
13D
100
AcDbEntity
  8
Q-SPCQ
100
AcDbFaceRecord
 10
0.0
 20
0.0
 30
0.0
 70
   128
 71
     3
 72
     4
 73
    -5
  0
VERTEX
  5
15C
330
13D
100
AcDbEntity
  8
Q-SPCQ
100
AcDbFaceRecord
 10
0.0
 20
0.0
 30
0.0
 70
   128
 71
   -25
 72
     2
 73
    -3
 74
   -16
  0
VERTEX
  5
15D
330
13D
100
AcDbEntity
  8
Q-SPCQ
100
AcDbFaceRecord
 10
0.0
 20
0.0
 30
0.0
 70
   128
 71
     7
 72
    -8
 73
    -3
  0
VERTEX
  5
15E
330
13D
100
AcDbEntity
  8
Q-SPCQ
100
AcDbFaceRecord
 10
0.0
 20
0.0
 30
0.0
 70
   128
 71
    15
 72
   -16
 73
    13
 74
    14
  0
VERTEX
  5
15F
330
13D
100
AcDbEntity
  8
Q-SPCQ
100
AcDbFaceRecord
 10
0.0
 20
0.0
 30
0.0
 70
   128
 71
    17
 72
   -18
 73
   -25
 74
    16
  0
VERTEX
  5
160
330
13D
100
AcDbEntity
  8
Q-SPCQ
100
AcDbFaceRecord
 10
0.0
 20
0.0
 30
0.0
 70
   128
 71
   -25
 72
    18
 73
    19
 74
   -20
  0
VERTEX
  5
161
330
13D
100
AcDbEntity
  8
Q-SPCQ
100
AcDbFaceRecord
 10
0.0
 20
0.0
 30
0.0
 70
   128
 71
    23
 72
    24
 73
   -25
 74
    22
  0
VERTEX
  5
162
330
13D
100
AcDbEntity
  8
Q-SPCQ
100
AcDbFaceRecord
 10
0.0
 20
0.0
 30
0.0
 70
   128
 71
     1
 72
    -2
 73
    25
  0
VERTEX
  5
163
330
13D
100
AcDbEntity
  8
Q-SPCQ
100
AcDbFaceRecord
 10
0.0
 20
0.0
 30
0.0
 70
   128
 71
    21
 72
   -22
 73
   -25
 74
    20
  0
SEQEND
  5
164
330
13D
100
AcDbEntity
  8
Q-SPCQ
  0
POLYLINE
  5
165
330
12F
100
AcDbEntity
  8
Q-SPCQ
100
AcDbPolyFaceMesh
 66
     1
 10
0.0
 20
0.0
 30
0.0
 70
    64
 71
     4
 72
     1
1001
REVIT
1002
{
1070
     2
1000
-2001350
1002
}
  0
VERTEX
  5
166
330
165
100
AcDbEntity
  8
Q-SPCQ
100
AcDbVertex
100
AcDbPolyFaceMeshVertex
 10
-280.3704046726227
 20
-316.8959186553955
 30
510.8184568405151
 70
   192
  0
VERTEX
  5
167
330
165
100
AcDbEntity
  8
Q-SPCQ
100
AcDbVertex
100
AcDbPolyFaceMeshVertex
 10
-280.3704046726227
 20
-360.5721044540405
 30
510.8184568405151
 70
   192
  0
VERTEX
  5
168
330
165
100
AcDbEntity
  8
Q-SPCQ
100
AcDbVertex
100
AcDbPolyFaceMeshVertex
 10
-343.8070667266846
 20
-360.5721044540405
 30
510.8184568405151
 70
   192
  0
VERTEX
  5
169
330
165
100
AcDbEntity
  8
Q-SPCQ
100
AcDbVertex
100
AcDbPolyFaceMeshVertex
 10
-343.8070667266846
 20
-316.8959186553955
 30
510.8184568405151
 70
   192
  0
VERTEX
  5
16A
330
165
100
AcDbEntity
  8
Q-SPCQ
100
AcDbFaceRecord
 10
0.0
 20
0.0
 30
0.0
 70
   128
 71
     1
 72
     2
 73
     3
 74
     4
  0
SEQEND
  5
16B
330
165
100
AcDbEntity
  8
Q-SPCQ
  0
POLYLINE
  5
16C
330
12F
100
AcDbEntity
  8
Q-SPCQ
100
AcDbPolyFaceMesh
 66
     1
 10
0.0
 20
0.0
 30
0.0
 70
    64
 71
     4
 72
     1
1001
REVIT
1002
{
1070
     2
1000
-2001350
1002
}
  0
VERTEX
  5
16D
330
16C
100
AcDbEntity
  8
Q-SPCQ
100
AcDbVertex
100
AcDbPolyFaceMeshVertex
 10
-280.3704046726227
 20
-316.8959186553955
 30
510.8184568405151
 70
   192
  0
VERTEX
  5
16E
330
16C
100
AcDbEntity
  8
Q-SPCQ
100
AcDbVertex
100
AcDbPolyFaceMeshVertex
 10
-343.8070667266846
 20
-316.8959186553955
 30
510.8184568405151
 70
   192
  0
VERTEX
  5
16F
330
16C
100
AcDbEntity
  8
Q-SPCQ
100
AcDbVertex
100
AcDbPolyFaceMeshVertex
 10
-343.8070667266846
 20
-316.8959186553955
 30
528.8184482574463
 70
   192
  0
VERTEX
  5
170
330
16C
100
AcDbEntity
  8
Q-SPCQ
100
AcDbVertex
100
AcDbPolyFaceMeshVertex
 10
-280.3704046726227
 20
-316.8959186553955
 30
528.8184482574463
 70
   192
  0
VERTEX
  5
171
330
16C
100
AcDbEntity
  8
Q-SPCQ
100
AcDbFaceRecord
 10
0.0
 20
0.0
 30
0.0
 70
   128
 71
     1
 72
     2
 73
     3
 74
     4
  0
SEQEND
  5
172
330
16C
100
AcDbEntity
  8
Q-SPCQ
  0
POLYLINE
  5
173
330
12F
100
AcDbEntity
  8
Q-SPCQ
100
AcDbPolyFaceMesh
 66
     1
 10
0.0
 20
0.0
 30
0.0
 70
    64
 71
     4
 72
     1
1001
REVIT
1002
{
1070
     2
1000
-2001350
1002
}
  0
VERTEX
  5
174
330
173
100
AcDbEntity
  8
Q-SPCQ
100
AcDbVertex
100
AcDbPolyFaceMeshVertex
 10
-343.8070667266846
 20
-316.8959186553955
 30
528.8184482574463
 70
   192
  0
VERTEX
  5
175
330
173
100
AcDbEntity
  8
Q-SPCQ
100
AcDbVertex
100
AcDbPolyFaceMeshVertex
 10
-343.8070667266846
 20
-360.5721044540405
 30
528.8184482574463
 70
   192
  0
VERTEX
  5
176
330
173
100
AcDbEntity
  8
Q-SPCQ
100
AcDbVertex
100
AcDbPolyFaceMeshVertex
 10
-280.3704046726227
 20
-360.5721044540405
 30
528.8184482574463
 70
   192
  0
VERTEX
  5
177
330
173
100
AcDbEntity
  8
Q-SPCQ
100
AcDbVertex
100
AcDbPolyFaceMeshVertex
 10
-280.3704046726227
 20
-316.8959186553955
 30
528.8184482574463
 70
   192
  0
VERTEX
  5
178
330
173
100
AcDbEntity
  8
Q-SPCQ
100
AcDbFaceRecord
 10
0.0
 20
0.0
 30
0.0
 70
   128
 71
     1
 72
     2
 73
     3
 74
     4
  0
SEQEND
  5
179
330
173
100
AcDbEntity
  8
Q-SPCQ
  0
POLYLINE
  5
17A
330
12F
100
AcDbEntity
  8
Q-SPCQ
100
AcDbPolyFaceMesh
 66
     1
 10
0.0
 20
0.0
 30
0.0
 70
    64
 71
    24
 72
    13
1001
REVIT
1002
{
1070
     2
1000
-2001350
1002
}
  0
VERTEX
  5
17B
330
17A
100
AcDbEntity
  8
Q-SPCQ
100
AcDbVertex
100
AcDbPolyFaceMeshVertex
 10
354.0740635871888
 20
-358.8958986282349
 30
519.8184525489807
 70
   192
  0
VERTEX
  5
17C
330
17A
100
AcDbEntity
  8
Q-SPCQ
100
AcDbVertex
100
AcDbPolyFaceMeshVertex
 10
354.0740635871888
 20
-359.7477725028992
 30
526.2889151573181
 70
   192
  0
VERTEX
  5
17D
330
17A
100
AcDbEntity
  8
Q-SPCQ
100
AcDbVertex
100
AcDbPolyFaceMeshVertex
 10
354.0740635871888
 20
-362.2452944755555
 30
532.3184526443482
 70
   192
  0
VERTEX
  5
17E
330
17A
100
AcDbEntity
  8
Q-SPCQ
100
AcDbVertex
100
AcDbPolyFaceMeshVertex
 10
354.0740635871888
 20
-366.2182351112366
 30
537.4961162567139
 70
   192
  0
VERTEX
  5
17F
330
17A
100
AcDbEntity
  8
Q-SPCQ
100
AcDbVertex
100
AcDbPolyFaceMeshVertex
 10
354.0740635871888
 20
-371.3958987236023
 30
541.4690932273864
 70
   192
  0
VERTEX
  5
180
330
17A
100
AcDbEntity
  8
Q-SPCQ
100
AcDbVertex
100
AcDbPolyFaceMeshVertex
 10
354.0740635871888
 20
-377.4254362106323
 30
543.9665788650512
 70
   192
  0
VERTEX
  5
181
330
17A
100
AcDbEntity
  8
Q-SPCQ
100
AcDbVertex
100
AcDbPolyFaceMeshVertex
 10
354.0740635871888
 20
-383.8958988189697
 30
544.8184527397155
 70
   192
  0
VERTEX
  5
182
330
17A
100
AcDbEntity
  8
Q-SPCQ
100
AcDbVertex
100
AcDbPolyFaceMeshVertex
 10
354.0740635871888
 20
-390.3663977622986
 30
543.9665788650512
 70
   192
  0
VERTEX
  5
183
330
17A
100
AcDbEntity
  8
Q-SPCQ
100
AcDbVertex
100
AcDbPolyFaceMeshVertex
 10
354.0740635871888
 20
-396.3958989143372
 30
541.4690932273864
 70
   192
  0
VERTEX
  5
184
330
17A
100
AcDbEntity
  8
Q-SPCQ
100
AcDbVertex
100
AcDbPolyFaceMeshVertex
 10
354.0740635871888
 20
-401.5735988616943
 30
537.4961162567139
 70
   192
  0
VERTEX
  5
185
330
17A
100
AcDbEntity
  8
Q-SPCQ
100
AcDbVertex
100
AcDbPolyFaceMeshVertex
 10
354.0740635871888
 20
-405.5465394973754
 30
532.3184526443482
 70
   192
  0
VERTEX
  5
186
330
17A
100
AcDbEntity
  8
Q-SPCQ
100
AcDbVertex
100
AcDbPolyFaceMeshVertex
 10
354.0740635871888
 20
-408.0440614700317
 30
526.2889151573181
 70
   192
  0
VERTEX
  5
187
330
17A
100
AcDbEntity
  8
Q-SPCQ
100
AcDbVertex
100
AcDbPolyFaceMeshVertex
 10
354.0740635871888
 20
-408.8958990097045
 30
519.8184525489807
 70
   192
  0
VERTEX
  5
188
330
17A
100
AcDbEntity
  8
Q-SPCQ
100
AcDbVertex
100
AcDbPolyFaceMeshVertex
 10
354.0740635871888
 20
-408.0440614700317
 30
513.3479536056519
 70
   192
  0
VERTEX
  5
189
330
17A
100
AcDbEntity
  8
Q-SPCQ
100
AcDbVertex
100
AcDbPolyFaceMeshVertex
 10
354.0740635871888
 20
-405.5465394973754
 30
507.3184524536133
 70
   192
  0
VERTEX
  5
18A
330
17A
100
AcDbEntity
  8
Q-SPCQ
100
AcDbVertex
100
AcDbPolyFaceMeshVertex
 10
354.0740635871888
 20
-401.5735988616943
 30
502.1407888412475
 70
   192
  0
VERTEX
  5
18B
330
17A
100
AcDbEntity
  8
Q-SPCQ
100
AcDbVertex
100
AcDbPolyFaceMeshVertex
 10
354.0740635871888
 20
-396.3958989143372
 30
498.1678118705749
 70
   192
  0
VERTEX
  5
18C
330
17A
100
AcDbEntity
  8
Q-SPCQ
100
AcDbVertex
100
AcDbPolyFaceMeshVertex
 10
354.0740635871888
 20
-390.3663977622986
 30
495.6702898979187
 70
   192
  0
VERTEX
  5
18D
330
17A
100
AcDbEntity
  8
Q-SPCQ
100
AcDbVertex
100
AcDbPolyFaceMeshVertex
 10
354.0740635871888
 20
-383.8958988189697
 30
494.8184523582458
 70
   192
  0
VERTEX
  5
18E
330
17A
100
AcDbEntity
  8
Q-SPCQ
100
AcDbVertex
100
AcDbPolyFaceMeshVertex
 10
354.0740635871888
 20
-377.4254362106323
 30
495.6702898979187
 70
   192
  0
VERTEX
  5
18F
330
17A
100
AcDbEntity
  8
Q-SPCQ
100
AcDbVertex
100
AcDbPolyFaceMeshVertex
 10
354.0740635871888
 20
-371.3958987236023
 30
498.1678118705749
 70
   192
  0
VERTEX
  5
190
330
17A
100
AcDbEntity
  8
Q-SPCQ
100
AcDbVertex
100
AcDbPolyFaceMeshVertex
 10
354.0740635871888
 20
-366.2182351112366
 30
502.1407888412475
 70
   192
  0
VERTEX
  5
191
330
17A
100
AcDbEntity
  8
Q-SPCQ
100
AcDbVertex
100
AcDbPolyFaceMeshVertex
 10
354.0740635871888
 20
-362.2452944755555
 30
507.3184524536133
 70
   192
  0
VERTEX
  5
192
330
17A
100
AcDbEntity
  8
Q-SPCQ
100
AcDbVertex
100
AcDbPolyFaceMeshVertex
 10
354.0740635871888
 20
-359.7477725028992
 30
513.3479536056519
 70
   192
  0
VERTEX
  5
193
330
17A
100
AcDbEntity
  8
Q-SPCQ
100
AcDbFaceRecord
 10
0.0
 20
0.0
 30
0.0
 70
   128
 71
    -9
 72
     7
 73
     8
  0
VERTEX
  5
194
330
17A
100
AcDbEntity
  8
Q-SPCQ
100
AcDbFaceRecord
 10
0.0
 20
0.0
 30
0.0
 70
   128
 71
     9
 72
   -10
 73
   -18
 74
   -22
  0
VERTEX
  5
195
330
17A
100
AcDbEntity
  8
Q-SPCQ
100
AcDbFaceRecord
 10
0.0
 20
0.0
 30
0.0
 70
   128
 71
    11
 72
    12
 73
   -13
 74
    10
  0
VERTEX
  5
196
330
17A
100
AcDbEntity
  8
Q-SPCQ
100
AcDbFaceRecord
 10
0.0
 20
0.0
 30
0.0
 70
   128
 71
    -9
 72
   -22
 73
     6
 74
    -7
  0
VERTEX
  5
197
330
17A
100
AcDbEntity
  8
Q-SPCQ
100
AcDbFaceRecord
 10
0.0
 20
0.0
 30
0.0
 70
   128
 71
     5
 72
    -6
 73
     3
 74
     4
  0
VERTEX
  5
198
330
17A
100
AcDbEntity
  8
Q-SPCQ
100
AcDbFaceRecord
 10
0.0
 20
0.0
 30
0.0
 70
   128
 71
    -3
 72
    -6
 73
     1
 74
     2
  0
VERTEX
  5
199
330
17A
100
AcDbEntity
  8
Q-SPCQ
100
AcDbFaceRecord
 10
0.0
 20
0.0
 30
0.0
 70
   128
 71
   -10
 72
   -13
 73
   -15
 74
   -18
  0
VERTEX
  5
19A
330
17A
100
AcDbEntity
  8
Q-SPCQ
100
AcDbFaceRecord
 10
0.0
 20
0.0
 30
0.0
 70
   128
 71
    15
 72
    16
 73
    17
 74
   -18
  0
VERTEX
  5
19B
330
17A
100
AcDbEntity
  8
Q-SPCQ
100
AcDbFaceRecord
 10
0.0
 20
0.0
 30
0.0
 70
   128
 71
   -22
 72
    18
 73
   -19
 74
    21
  0
VERTEX
  5
19C
330
17A
100
AcDbEntity
  8
Q-SPCQ
100
AcDbFaceRecord
 10
0.0
 20
0.0
 30
0.0
 70
   128
 71
   -24
 72
    22
 73
    23
  0
VERTEX
  5
19D
330
17A
100
AcDbEntity
  8
Q-SPCQ
100
AcDbFaceRecord
 10
0.0
 20
0.0
 30
0.0
 70
   128
 71
    24
 72
    -1
 73
    -6
 74
   -22
  0
VERTEX
  5
19E
330
17A
100
AcDbEntity
  8
Q-SPCQ
100
AcDbFaceRecord
 10
0.0
 20
0.0
 30
0.0
 70
   128
 71
    20
 72
   -21
 73
    19
  0
VERTEX
  5
19F
330
17A
100
AcDbEntity
  8
Q-SPCQ
100
AcDbFaceRecord
 10
0.0
 20
0.0
 30
0.0
 70
   128
 71
   -15
 72
    13
 73
    14
  0
SEQEND
  5
1A0
330
17A
100
AcDbEntity
  8
Q-SPCQ
  0
POLYLINE
  5
1A1
330
12F
100
AcDbEntity
  8
Q-SPCQ
100
AcDbPolyFaceMesh
 66
     1
 10
0.0
 20
0.0
 30
0.0
 70
    64
 71
   131
 72
   122
1001
REVIT
1002
{
1070
     2
1000
-2001350
1002
}
  0
VERTEX
  5
1A2
330
1A1
100
AcDbEntity
  8
Q-SPCQ
100
AcDbVertex
100
AcDbPolyFaceMeshVertex
 10
354.0740635871888
 20
-408.8958990097045
 30
519.8184525489807
 70
   192
  0
VERTEX
  5
1A3
330
1A1
100
AcDbEntity
  8
Q-SPCQ
100
AcDbVertex
100
AcDbPolyFaceMeshVertex
 10
354.0740635871888
 20
-408.0440614700317
 30
526.2889151573181
 70
   192
  0
VERTEX
  5
1A4
330
1A1
100
AcDbEntity
  8
Q-SPCQ
100
AcDbVertex
100
AcDbPolyFaceMeshVertex
 10
354.0740635871888
 20
-405.5465394973754
 30
532.3184526443482
 70
   192
  0
VERTEX
  5
1A5
330
1A1
100
AcDbEntity
  8
Q-SPCQ
100
AcDbVertex
100
AcDbPolyFaceMeshVertex
 10
354.0740635871888
 20
-401.5735988616943
 30
537.4961162567139
 70
   192
  0
VERTEX
  5
1A6
330
1A1
100
AcDbEntity
  8
Q-SPCQ
100
AcDbVertex
100
AcDbPolyFaceMeshVertex
 10
354.0740635871888
 20
-396.3958989143372
 30
541.4690932273864
 70
   192
  0
VERTEX
  5
1A7
330
1A1
100
AcDbEntity
  8
Q-SPCQ
100
AcDbVertex
100
AcDbPolyFaceMeshVertex
 10
354.0740635871888
 20
-390.3663977622986
 30
543.9665788650512
 70
   192
  0
VERTEX
  5
1A8
330
1A1
100
AcDbEntity
  8
Q-SPCQ
100
AcDbVertex
100
AcDbPolyFaceMeshVertex
 10
354.0740635871888
 20
-383.8958988189697
 30
544.8184527397155
 70
   192
  0
VERTEX
  5
1A9
330
1A1
100
AcDbEntity
  8
Q-SPCQ
100
AcDbVertex
100
AcDbPolyFaceMeshVertex
 10
354.0740635871888
 20
-377.4254362106323
 30
543.9665788650512
 70
   192
  0
VERTEX
  5
1AA
330
1A1
100
AcDbEntity
  8
Q-SPCQ
100
AcDbVertex
100
AcDbPolyFaceMeshVertex
 10
354.0740635871888
 20
-371.3958987236023
 30
541.4690932273864
 70
   192
  0
VERTEX
  5
1AB
330
1A1
100
AcDbEntity
  8
Q-SPCQ
100
AcDbVertex
100
AcDbPolyFaceMeshVertex
 10
354.0740635871888
 20
-366.2182351112366
 30
537.4961162567139
 70
   192
  0
VERTEX
  5
1AC
330
1A1
100
AcDbEntity
  8
Q-SPCQ
100
AcDbVertex
100
AcDbPolyFaceMeshVertex
 10
354.0740635871888
 20
-362.2452944755555
 30
532.3184526443482
 70
   192
  0
VERTEX
  5
1AD
330
1A1
100
AcDbEntity
  8
Q-SPCQ
100
AcDbVertex
100
AcDbPolyFaceMeshVertex
 10
354.0740635871888
 20
-359.7477725028992
 30
526.2889151573181
 70
   192
  0
VERTEX
  5
1AE
330
1A1
100
AcDbEntity
  8
Q-SPCQ
100
AcDbVertex
100
AcDbPolyFaceMeshVertex
 10
354.0740635871888
 20
-358.8958986282349
 30
519.8184525489807
 70
   192
  0
VERTEX
  5
1AF
330
1A1
100
AcDbEntity
  8
Q-SPCQ
100
AcDbVertex
100
AcDbPolyFaceMeshVertex
 10
343.8070667266846
 20
-358.8958986282349
 30
519.8184525489807
 70
   192
  0
VERTEX
  5
1B0
330
1A1
100
AcDbEntity
  8
Q-SPCQ
100
AcDbVertex
100
AcDbPolyFaceMeshVertex
 10
343.8070667266846
 20
-359.3185472488404
 30
524.3958257675171
 70
   192
  0
VERTEX
  5
1B1
330
1A1
100
AcDbEntity
  8
Q-SPCQ
100
AcDbVertex
100
AcDbPolyFaceMeshVertex
 10
343.8070667266846
 20
-360.5721044540405
 30
528.8184482574463
 70
   192
  0
VERTEX
  5
1B2
330
1A1
100
AcDbEntity
  8
Q-SPCQ
100
AcDbVertex
100
AcDbPolyFaceMeshVertex
 10
280.3704046726227
 20
-360.5721044540405
 30
528.8184482574463
 70
   192
  0
VERTEX
  5
1B3
330
1A1
100
AcDbEntity
  8
Q-SPCQ
100
AcDbVertex
100
AcDbPolyFaceMeshVertex
 10
280.3704046726227
 20
-359.3185472488404
 30
524.3958257675171
 70
   192
  0
VERTEX
  5
1B4
330
1A1
100
AcDbEntity
  8
Q-SPCQ
100
AcDbVertex
100
AcDbPolyFaceMeshVertex
 10
280.3704046726227
 20
-358.8958986282349
 30
519.8184525489807
 70
   192
  0
VERTEX
  5
1B5
330
1A1
100
AcDbEntity
  8
Q-SPCQ
100
AcDbVertex
100
AcDbPolyFaceMeshVertex
 10
-280.3704046726227
 20
-358.8958986282349
 30
519.8184525489807
 70
   192
  0
VERTEX
  5
1B6
330
1A1
100
AcDbEntity
  8
Q-SPCQ
100
AcDbVertex
100
AcDbPolyFaceMeshVertex
 10
-280.3704046726227
 20
-359.3185472488404
 30
524.3958257675171
 70
   192
  0
VERTEX
  5
1B7
330
1A1
100
AcDbEntity
  8
Q-SPCQ
100
AcDbVertex
100
AcDbPolyFaceMeshVertex
 10
-280.3704046726227
 20
-360.5721044540405
 30
528.8184482574463
 70
   192
  0
VERTEX
  5
1B8
330
1A1
100
AcDbEntity
  8
Q-SPCQ
100
AcDbVertex
100
AcDbPolyFaceMeshVertex
 10
-343.8070667266846
 20
-360.5721044540405
 30
528.8184482574463
 70
   192
  0
VERTEX
  5
1B9
330
1A1
100
AcDbEntity
  8
Q-SPCQ
100
AcDbVertex
100
AcDbPolyFaceMeshVertex
 10
-343.8070667266846
 20
-363.5532814979553
 30
534.350378036499
 70
   192
  0
VERTEX
  5
1BA
330
1A1
100
AcDbEntity
  8
Q-SPCQ
100
AcDbVertex
100
AcDbPolyFaceMeshVertex
 10
-343.8070667266846
 20
-367.8211169242859
 30
538.965248966217
 70
   192
  0
VERTEX
  5
1BB
330
1A1
100
AcDbEntity
  8
Q-SPCQ
100
AcDbVertex
100
AcDbPolyFaceMeshVertex
 10
-343.8070667266846
 20
-373.105242061615
 30
542.369764995575
 70
   192
  0
VERTEX
  5
1BC
330
1A1
100
AcDbEntity
  8
Q-SPCQ
100
AcDbVertex
100
AcDbPolyFaceMeshVertex
 10
-343.8070667266846
 20
-379.0717383384705
 30
544.3485686302185
 70
   192
  0
VERTEX
  5
1BD
330
1A1
100
AcDbEntity
  8
Q-SPCQ
100
AcDbVertex
100
AcDbPolyFaceMeshVertex
 10
-343.8070667266846
 20
-385.3433395385743
 30
544.7765221595764
 70
   192
  0
VERTEX
  5
1BE
330
1A1
100
AcDbEntity
  8
Q-SPCQ
100
AcDbVertex
100
AcDbPolyFaceMeshVertex
 10
-343.8070667266846
 20
-391.5236309051514
 30
543.6263743400574
 70
   192
  0
VERTEX
  5
1BF
330
1A1
100
AcDbEntity
  8
Q-SPCQ
100
AcDbVertex
100
AcDbPolyFaceMeshVertex
 10
-343.8070667266846
 20
-397.2217569351196
 30
540.9707951545715
 70
   192
  0
VERTEX
  5
1C0
330
1A1
100
AcDbEntity
  8
Q-SPCQ
100
AcDbVertex
100
AcDbPolyFaceMeshVertex
 10
-343.8070667266846
 20
-402.077383518219
 30
536.9775069236756
 70
   192
  0
VERTEX
  5
1C1
330
1A1
100
AcDbEntity
  8
Q-SPCQ
100
AcDbVertex
100
AcDbPolyFaceMeshVertex
 10
-343.8070667266846
 20
-405.7834073066711
 30
531.8989288330079
 70
   192
  0
VERTEX
  5
1C2
330
1A1
100
AcDbEntity
  8
Q-SPCQ
100
AcDbVertex
100
AcDbPolyFaceMeshVertex
 10
-343.8070667266846
 20
-408.1052132606506
 30
526.0562258720398
 70
   192
  0
VERTEX
  5
1C3
330
1A1
100
AcDbEntity
  8
Q-SPCQ
100
AcDbVertex
100
AcDbPolyFaceMeshVertex
 10
-343.8070667266846
 20
-408.8958990097045
 30
519.8184525489807
 70
   192
  0
VERTEX
  5
1C4
330
1A1
100
AcDbEntity
  8
Q-SPCQ
100
AcDbVertex
100
AcDbPolyFaceMeshVertex
 10
354.0740635871888
 20
-360.9965334892273
 30
529.3036657333374
 70
   192
  0
VERTEX
  5
1C5
330
1A1
100
AcDbEntity
  8
Q-SPCQ
100
AcDbVertex
100
AcDbPolyFaceMeshVertex
 10
354.0740635871888
 20
-359.3218537330628
 30
523.0536838531494
 70
   192
  0
VERTEX
  5
1C6
330
1A1
100
AcDbEntity
  8
Q-SPCQ
100
AcDbVertex
100
AcDbPolyFaceMeshVertex
 10
343.8070667266846
 20
-359.9453258514405
 30
526.6071370124818
 70
   192
  0
VERTEX
  5
1C7
330
1A1
100
AcDbEntity
  8
Q-SPCQ
100
AcDbVertex
100
AcDbPolyFaceMeshVertex
 10
354.0740635871888
 20
-360.3721529960632
 30
527.7963086128234
 70
   192
  0
VERTEX
  5
1C8
330
1A1
100
AcDbEntity
  8
Q-SPCQ
100
AcDbVertex
100
AcDbPolyFaceMeshVertex
 10
354.0740635871888
 20
-360.6843432426453
 30
528.5500053405761
 70
   192
  0
VERTEX
  5
1C9
330
1A1
100
AcDbEntity
  8
Q-SPCQ
100
AcDbVertex
100
AcDbPolyFaceMeshVertex
 10
354.0740635871888
 20
-359.534813117981
 30
524.6713176727295
 70
   192
  0
VERTEX
  5
1CA
330
1A1
100
AcDbEntity
  8
Q-SPCQ
100
AcDbVertex
100
AcDbPolyFaceMeshVertex
 10
343.8070667266846
 20
-359.6319365501404
 30
525.5014632225037
 70
   192
  0
VERTEX
  5
1CB
330
1A1
100
AcDbEntity
  8
Q-SPCQ
100
AcDbVertex
100
AcDbPolyFaceMeshVertex
 10
354.0740635871888
 20
-360.0599627494812
 30
527.0426118850708
 70
   192
  0
VERTEX
  5
1CC
330
1A1
100
AcDbEntity
  8
Q-SPCQ
100
AcDbVertex
100
AcDbPolyFaceMeshVertex
 10
354.0740635871888
 20
-360.8404383659363
 30
528.9268355369568
 70
   192
  0
VERTEX
  5
1CD
330
1A1
100
AcDbEntity
  8
Q-SPCQ
100
AcDbVertex
100
AcDbPolyFaceMeshVertex
 10
354.0740635871888
 20
-359.4283152580262
 30
523.8625007629394
 70
   192
  0
VERTEX
  5
1CE
330
1A1
100
AcDbEntity
  8
Q-SPCQ
100
AcDbVertex
100
AcDbPolyFaceMeshVertex
 10
343.8070667266846
 20
-359.4752237319946
 30
524.9486626625061
 70
   192
  0
VERTEX
  5
1CF
330
1A1
100
AcDbEntity
  8
Q-SPCQ
100
AcDbVertex
100
AcDbPolyFaceMeshVertex
 10
343.8070667266846
 20
-359.7886130332947
 30
526.0543001174927
 70
   192
  0
VERTEX
  5
1D0
330
1A1
100
AcDbEntity
  8
Q-SPCQ
100
AcDbVertex
100
AcDbPolyFaceMeshVertex
 10
354.0740635871888
 20
-359.9038676261902
 30
526.6657816886902
 70
   192
  0
VERTEX
  5
1D1
330
1A1
100
AcDbEntity
  8
Q-SPCQ
100
AcDbVertex
100
AcDbPolyFaceMeshVertex
 10
354.0740635871888
 20
-360.7623908042908
 30
528.7384022712707
 70
   192
  0
VERTEX
  5
1D2
330
1A1
100
AcDbEntity
  8
Q-SPCQ
100
AcDbVertex
100
AcDbPolyFaceMeshVertex
 10
354.0740635871888
 20
-359.4815823554993
 30
524.2669092178345
 70
   192
  0
VERTEX
  5
1D3
330
1A1
100
AcDbEntity
  8
Q-SPCQ
100
AcDbVertex
100
AcDbPolyFaceMeshVertex
 10
343.8070667266846
 20
-359.3968854904175
 30
524.6722260475158
 70
   192
  0
VERTEX
  5
1D4
330
1A1
100
AcDbEntity
  8
Q-SPCQ
100
AcDbVertex
100
AcDbPolyFaceMeshVertex
 10
343.8070667266846
 20
-359.8669876098633
 30
526.3307367324829
 70
   192
  0
VERTEX
  5
1D5
330
1A1
100
AcDbEntity
  8
Q-SPCQ
100
AcDbVertex
100
AcDbPolyFaceMeshVertex
 10
354.0740635871888
 20
-359.8258200645447
 30
526.4773484230041
 70
   192
  0
VERTEX
  5
1D6
330
1A1
100
AcDbEntity
  8
Q-SPCQ
100
AcDbVertex
100
AcDbPolyFaceMeshVertex
 10
354.0740635871888
 20
-359.5081795692444
 30
524.4691134452819
 70
   192
  0
VERTEX
  5
1D7
330
1A1
100
AcDbEntity
  8
Q-SPCQ
100
AcDbVertex
100
AcDbPolyFaceMeshVertex
 10
343.8070667266846
 20
-360.2587151527405
 30
527.7127744674682
 70
   192
  0
VERTEX
  5
1D8
330
1A1
100
AcDbEntity
  8
Q-SPCQ
100
AcDbVertex
100
AcDbPolyFaceMeshVertex
 10
343.8070667266846
 20
-360.4154279708863
 30
528.2656113624573
 70
   192
  0
VERTEX
  5
1D9
330
1A1
100
AcDbEntity
  8
Q-SPCQ
100
AcDbVertex
100
AcDbPolyFaceMeshVertex
 10
343.8070667266846
 20
-359.1072229385376
 30
522.1071209907531
 70
   192
  0
VERTEX
  5
1DA
330
1A1
100
AcDbEntity
  8
Q-SPCQ
100
AcDbVertex
100
AcDbPolyFaceMeshVertex
 10
343.8070667266846
 20
-359.3577163696289
 30
524.5340440750123
 70
   192
  0
VERTEX
  5
1DB
330
1A1
100
AcDbEntity
  8
Q-SPCQ
100
AcDbVertex
100
AcDbPolyFaceMeshVertex
 10
354.0740635871888
 20
-359.6412746429443
 30
525.4800982475281
 70
   192
  0
VERTEX
  5
1DC
330
1A1
100
AcDbEntity
  8
Q-SPCQ
100
AcDbVertex
100
AcDbPolyFaceMeshVertex
 10
343.8070667266846
 20
-359.9061567306518
 30
526.4689187049865
 70
   192
  0
VERTEX
  5
1DD
330
1A1
100
AcDbEntity
  8
Q-SPCQ
100
AcDbVertex
100
AcDbPolyFaceMeshVertex
 10
343.8070667266846
 20
-360.1020023345947
 30
527.1599739074708
 70
   192
  0
VERTEX
  5
1DE
330
1A1
100
AcDbEntity
  8
Q-SPCQ
100
AcDbVertex
100
AcDbPolyFaceMeshVertex
 10
343.8070667266846
 20
-360.3370533943177
 30
527.9892110824585
 70
   192
  0
VERTEX
  5
1DF
330
1A1
100
AcDbEntity
  8
Q-SPCQ
100
AcDbVertex
100
AcDbPolyFaceMeshVertex
 10
343.8070667266846
 20
-360.4937662124634
 30
528.5420479774475
 70
   192
  0
VERTEX
  5
1E0
330
1A1
100
AcDbEntity
  8
Q-SPCQ
100
AcDbVertex
100
AcDbPolyFaceMeshVertex
 10
343.8070667266846
 20
-359.212885093689
 30
523.2514915466309
 70
   192
  0
VERTEX
  5
1E1
330
1A1
100
AcDbEntity
  8
Q-SPCQ
100
AcDbVertex
100
AcDbPolyFaceMeshVertex
 10
354.0740635871888
 20
-359.6945417404175
 30
525.8845067024231
 70
   192
  0
VERTEX
  5
1E2
330
1A1
100
AcDbEntity
  8
Q-SPCQ
100
AcDbVertex
100
AcDbPolyFaceMeshVertex
 10
354.0740635871888
 20
-359.5880438804627
 30
525.075689792633
 70
   192
  0
VERTEX
  5
1E3
330
1A1
100
AcDbEntity
  8
Q-SPCQ
100
AcDbVertex
100
AcDbPolyFaceMeshVertex
 10
343.8070667266846
 20
-359.1600540161133
 30
522.6793244361878
 70
   192
  0
VERTEX
  5
1E4
330
1A1
100
AcDbEntity
  8
Q-SPCQ
100
AcDbVertex
100
AcDbPolyFaceMeshVertex
 10
343.8070667266846
 20
-360.0236640930176
 30
526.8835372924804
 70
   192
  0
VERTEX
  5
1E5
330
1A1
100
AcDbEntity
  8
Q-SPCQ
100
AcDbVertex
100
AcDbPolyFaceMeshVertex
 10
343.8070667266846
 20
-360.2978842735291
 30
527.8509927749634
 70
   192
  0
VERTEX
  5
1E6
330
1A1
100
AcDbEntity
  8
Q-SPCQ
100
AcDbVertex
100
AcDbPolyFaceMeshVertex
 10
343.8070667266846
 20
-360.5329353332519
 30
528.6802299499512
 70
   192
  0
VERTEX
  5
1E7
330
1A1
100
AcDbEntity
  8
Q-SPCQ
100
AcDbVertex
100
AcDbPolyFaceMeshVertex
 10
343.8070667266846
 20
-359.2657161712647
 30
523.823658657074
 70
   192
  0
VERTEX
  5
1E8
330
1A1
100
AcDbEntity
  8
Q-SPCQ
100
AcDbVertex
100
AcDbPolyFaceMeshVertex
 10
354.0740635871888
 20
-359.7211389541626
 30
526.0867109298706
 70
   192
  0
VERTEX
  5
1E9
330
1A1
100
AcDbEntity
  8
Q-SPCQ
100
AcDbVertex
100
AcDbPolyFaceMeshVertex
 10
354.0740635871888
 20
-359.5614103317261
 30
524.873521900177
 70
   192
  0
VERTEX
  5
1EA
330
1A1
100
AcDbEntity
  8
Q-SPCQ
100
AcDbVertex
100
AcDbPolyFaceMeshVertex
 10
343.8070667266846
 20
-359.1864695549011
 30
522.9653898239136
 70
   192
  0
VERTEX
  5
1EB
330
1A1
100
AcDbEntity
  8
Q-SPCQ
100
AcDbVertex
100
AcDbPolyFaceMeshVertex
 10
343.8070667266846
 20
-360.0628332138062
 30
527.0217555999756
 70
   192
  0
VERTEX
  5
1EC
330
1A1
100
AcDbEntity
  8
Q-SPCQ
100
AcDbVertex
100
AcDbPolyFaceMeshVertex
 10
343.8070667266846
 20
-359.2921317100525
 30
524.1097240447998
 70
   192
  0
VERTEX
  5
1ED
330
1A1
100
AcDbEntity
  8
Q-SPCQ
100
AcDbVertex
100
AcDbPolyFaceMeshVertex
 10
343.8070667266846
 20
-359.1996591567993
 30
523.1084406852723
 70
   192
  0
VERTEX
  5
1EE
330
1A1
100
AcDbEntity
  8
Q-SPCQ
100
AcDbVertex
100
AcDbPolyFaceMeshVertex
 10
343.8070667266846
 20
-359.3053213119507
 30
524.2527749061585
 70
   192
  0
VERTEX
  5
1EF
330
1A1
100
AcDbEntity
  8
Q-SPCQ
100
AcDbVertex
100
AcDbPolyFaceMeshVertex
 10
354.0740635871888
 20
-359.4549488067627
 30
524.0647049903869
 70
   192
  0
VERTEX
  5
1F0
330
1A1
100
AcDbEntity
  8
Q-SPCQ
100
AcDbVertex
100
AcDbPolyFaceMeshVertex
 10
354.0740635871888
 20
-360.2160578727723
 30
527.4194420814514
 70
   192
  0
VERTEX
  5
1F1
330
1A1
100
AcDbEntity
  8
Q-SPCQ
100
AcDbVertex
100
AcDbPolyFaceMeshVertex
 10
354.0740635871888
 20
-359.3750844955445
 30
523.4580923080444
 70
   192
  0
VERTEX
  5
1F2
330
1A1
100
AcDbEntity
  8
Q-SPCQ
100
AcDbVertex
100
AcDbPolyFaceMeshVertex
 10
343.8070667266846
 20
-359.5535983085633
 30
525.2250629425049
 70
   192
  0
VERTEX
  5
1F3
330
1A1
100
AcDbEntity
  8
Q-SPCQ
100
AcDbVertex
100
AcDbPolyFaceMeshVertex
 10
354.0740635871888
 20
-359.1088943481445
 30
521.4360500335693
 70
   192
  0
VERTEX
  5
1F4
330
1A1
100
AcDbEntity
  8
Q-SPCQ
100
AcDbVertex
100
AcDbPolyFaceMeshVertex
 10
354.0740635871888
 20
-359.9819151878357
 30
526.8541786193848
 70
   192
  0
VERTEX
  5
1F5
330
1A1
100
AcDbEntity
  8
Q-SPCQ
100
AcDbVertex
100
AcDbPolyFaceMeshVertex
 10
343.8070667266846
 20
-359.7102747917176
 30
525.7778998374939
 70
   192
  0
VERTEX
  5
1F6
330
1A1
100
AcDbEntity
  8
Q-SPCQ
100
AcDbVertex
100
AcDbPolyFaceMeshVertex
 10
354.0740635871888
 20
-360.5282481193543
 30
528.1731388092041
 70
   192
  0
VERTEX
  5
1F7
330
1A1
100
AcDbEntity
  8
Q-SPCQ
100
AcDbVertex
100
AcDbPolyFaceMeshVertex
 10
354.0740635871888
 20
-360.2941054344177
 30
527.6078753471374
 70
   192
  0
VERTEX
  5
1F8
330
1A1
100
AcDbEntity
  8
Q-SPCQ
100
AcDbVertex
100
AcDbPolyFaceMeshVertex
 10
354.0740635871888
 20
-359.401718044281
 30
523.6602965354919
 70
   192
  0
VERTEX
  5
1F9
330
1A1
100
AcDbEntity
  8
Q-SPCQ
100
AcDbVertex
100
AcDbPolyFaceMeshVertex
 10
354.0740635871888
 20
-360.1380103111267
 30
527.2310451507568
 70
   192
  0
VERTEX
  5
1FA
330
1A1
100
AcDbEntity
  8
Q-SPCQ
100
AcDbVertex
100
AcDbPolyFaceMeshVertex
 10
354.0740635871888
 20
-359.3484509468079
 30
523.2558880805969
 70
   192
  0
VERTEX
  5
1FB
330
1A1
100
AcDbEntity
  8
Q-SPCQ
100
AcDbVertex
100
AcDbPolyFaceMeshVertex
 10
343.8070667266846
 20
-359.5143928527832
 30
525.0868446350097
 70
   192
  0
VERTEX
  5
1FC
330
1A1
100
AcDbEntity
  8
Q-SPCQ
100
AcDbVertex
100
AcDbPolyFaceMeshVertex
 10
354.0740635871888
 20
-359.2153558731079
 30
522.2448669433593
 70
   192
  0
VERTEX
  5
1FD
330
1A1
100
AcDbEntity
  8
Q-SPCQ
100
AcDbVertex
100
AcDbPolyFaceMeshVertex
 10
354.0740635871888
 20
-360.6062956809998
 30
528.3615720748902
 70
   192
  0
VERTEX
  5
1FE
330
1A1
100
AcDbEntity
  8
Q-SPCQ
100
AcDbVertex
100
AcDbPolyFaceMeshVertex
 10
343.8070667266846
 20
-359.7494439125061
 30
525.916118144989
 70
   192
  0
VERTEX
  5
1FF
330
1A1
100
AcDbEntity
  8
Q-SPCQ
100
AcDbVertex
100
AcDbPolyFaceMeshVertex
 10
354.0740635871888
 20
-360.4502005577087
 30
527.9847418785095
 70
   192
  0
VERTEX
  5
200
330
1A1
100
AcDbEntity
  8
Q-SPCQ
100
AcDbVertex
100
AcDbPolyFaceMeshVertex
 10
354.0740635871888
 20
-359.2685866355896
 30
522.6492753982544
 70
   192
  0
VERTEX
  5
201
330
1A1
100
AcDbEntity
  8
Q-SPCQ
100
AcDbVertex
100
AcDbPolyFaceMeshVertex
 10
354.0740635871888
 20
-359.1621251106262
 30
521.8404584884644
 70
   192
  0
VERTEX
  5
202
330
1A1
100
AcDbEntity
  8
Q-SPCQ
100
AcDbVertex
100
AcDbPolyFaceMeshVertex
 10
354.0740635871888
 20
-359.2952201843262
 30
522.8514796257019
 70
   192
  0
VERTEX
  5
203
330
1A1
100
AcDbEntity
  8
Q-SPCQ
100
AcDbVertex
100
AcDbPolyFaceMeshVertex
 10
354.0740635871888
 20
-359.1887586593628
 30
522.0426627159119
 70
   192
  0
VERTEX
  5
204
330
1A1
100
AcDbEntity
  8
Q-SPCQ
100
AcDbVertex
100
AcDbPolyFaceMeshVertex
 10
343.8070667266846
 20
-359.2393006324769
 30
523.5375569343567
 70
   192
  0
VERTEX
  5
205
330
1A1
100
AcDbEntity
  8
Q-SPCQ
100
AcDbVertex
100
AcDbPolyFaceMeshVertex
 10
343.8070667266846
 20
-360.1803769111634
 30
527.4363741874695
 70
   192
  0
VERTEX
  5
206
330
1A1
100
AcDbEntity
  8
Q-SPCQ
100
AcDbVertex
100
AcDbPolyFaceMeshVertex
 10
354.0740635871888
 20
-359.6679081916809
 30
525.6823024749755
 70
   192
  0
VERTEX
  5
207
330
1A1
100
AcDbEntity
  8
Q-SPCQ
100
AcDbVertex
100
AcDbPolyFaceMeshVertex
 10
343.8070667266846
 20
-359.1336384773255
 30
522.3932227134704
 70
   192
  0
VERTEX
  5
208
330
1A1
100
AcDbEntity
  8
Q-SPCQ
100
AcDbVertex
100
AcDbPolyFaceMeshVertex
 10
354.0740635871888
 20
-359.6146774291992
 30
525.2778940200805
 70
   192
  0
VERTEX
  5
209
330
1A1
100
AcDbEntity
  8
Q-SPCQ
100
AcDbVertex
100
AcDbPolyFaceMeshVertex
 10
343.8070667266846
 20
-360.4545970916748
 30
528.4038296699524
 70
   192
  0
VERTEX
  5
20A
330
1A1
100
AcDbEntity
  8
Q-SPCQ
100
AcDbVertex
100
AcDbPolyFaceMeshVertex
 10
343.8070667266846
 20
-359.0015607833862
 30
520.9627867698669
 70
   192
  0
VERTEX
  5
20B
330
1A1
100
AcDbEntity
  8
Q-SPCQ
100
AcDbVertex
100
AcDbPolyFaceMeshVertex
 10
343.8070667266846
 20
-360.1412077903748
 30
527.2981558799743
 70
   192
  0
VERTEX
  5
20C
330
1A1
100
AcDbEntity
  8
Q-SPCQ
100
AcDbVertex
100
AcDbPolyFaceMeshVertex
 10
343.8070667266846
 20
-359.252490234375
 30
523.6806077957153
 70
   192
  0
VERTEX
  5
20D
330
1A1
100
AcDbEntity
  8
Q-SPCQ
100
AcDbVertex
100
AcDbPolyFaceMeshVertex
 10
343.8070667266846
 20
-359.1732436180115
 30
522.8223389625549
 70
   192
  0
VERTEX
  5
20E
330
1A1
100
AcDbEntity
  8
Q-SPCQ
100
AcDbVertex
100
AcDbPolyFaceMeshVertex
 10
343.8070667266846
 20
-360.2195460319519
 30
527.5745924949645
 70
   192
  0
VERTEX
  5
20F
330
1A1
100
AcDbEntity
  8
Q-SPCQ
100
AcDbVertex
100
AcDbPolyFaceMeshVertex
 10
343.8070667266846
 20
-359.1204488754272
 30
522.2501718521118
 70
   192
  0
VERTEX
  5
210
330
1A1
100
AcDbEntity
  8
Q-SPCQ
100
AcDbVertex
100
AcDbPolyFaceMeshVertex
 10
343.8070667266846
 20
-359.0543918609619
 30
521.5349538803101
 70
   192
  0
VERTEX
  5
211
330
1A1
100
AcDbEntity
  8
Q-SPCQ
100
AcDbVertex
100
AcDbPolyFaceMeshVertex
 10
343.8070667266846
 20
-359.0279763221741
 30
521.2488884925842
 70
   192
  0
VERTEX
  5
212
330
1A1
100
AcDbEntity
  8
Q-SPCQ
100
AcDbVertex
100
AcDbPolyFaceMeshVertex
 10
343.8070667266846
 20
-359.0808073997497
 30
521.8210556030274
 70
   192
  0
VERTEX
  5
213
330
1A1
100
AcDbEntity
  8
Q-SPCQ
100
AcDbVertex
100
AcDbPolyFaceMeshVertex
 10
343.8070667266846
 20
-359.0412022590637
 30
521.3919030189514
 70
   192
  0
VERTEX
  5
214
330
1A1
100
AcDbEntity
  8
Q-SPCQ
100
AcDbVertex
100
AcDbPolyFaceMeshVertex
 10
343.8070667266846
 20
-359.671105670929
 30
525.6396815299988
 70
   192
  0
VERTEX
  5
215
330
1A1
100
AcDbEntity
  8
Q-SPCQ
100
AcDbVertex
100
AcDbPolyFaceMeshVertex
 10
354.0740635871888
 20
-359.1354915618897
 30
521.6382542610168
 70
   192
  0
VERTEX
  5
216
330
1A1
100
AcDbEntity
  8
Q-SPCQ
100
AcDbVertex
100
AcDbPolyFaceMeshVertex
 10
354.0740635871888
 20
-359.0023964881897
 30
520.6272694587708
 70
   192
  0
VERTEX
  5
217
330
1A1
100
AcDbEntity
  8
Q-SPCQ
100
AcDbVertex
100
AcDbPolyFaceMeshVertex
 10
354.0740635871888
 20
-359.2419894218445
 30
522.4470711708069
 70
   192
  0
VERTEX
  5
218
330
1A1
100
AcDbEntity
  8
Q-SPCQ
100
AcDbVertex
100
AcDbPolyFaceMeshVertex
 10
354.0740635871888
 20
-359.0556272506714
 30
521.0316779136658
 70
   192
  0
VERTEX
  5
219
330
1A1
100
AcDbEntity
  8
Q-SPCQ
100
AcDbVertex
100
AcDbPolyFaceMeshVertex
 10
354.0740635871888
 20
-359.082260799408
 30
521.2338458061218
 70
   192
  0
VERTEX
  5
21A
330
1A1
100
AcDbEntity
  8
Q-SPCQ
100
AcDbVertex
100
AcDbPolyFaceMeshVertex
 10
354.0740635871888
 20
-359.0290300369263
 30
520.8294736862183
 70
   192
  0
VERTEX
  5
21B
330
1A1
100
AcDbEntity
  8
Q-SPCQ
100
AcDbVertex
100
AcDbPolyFaceMeshVertex
 10
343.8070667266846
 20
-359.0676177978516
 30
521.6780047416687
 70
   192
  0
VERTEX
  5
21C
330
1A1
100
AcDbEntity
  8
Q-SPCQ
100
AcDbVertex
100
AcDbPolyFaceMeshVertex
 10
343.8070667266846
 20
-358.9487297058105
 30
520.3906196594238
 70
   192
  0
VERTEX
  5
21D
330
1A1
100
AcDbEntity
  8
Q-SPCQ
100
AcDbVertex
100
AcDbPolyFaceMeshVertex
 10
343.8070667266846
 20
-358.9751452445984
 30
520.6767213821412
 70
   192
  0
VERTEX
  5
21E
330
1A1
100
AcDbEntity
  8
Q-SPCQ
100
AcDbVertex
100
AcDbPolyFaceMeshVertex
 10
343.8070667266846
 20
-358.9883711814881
 30
520.8197359085082
 70
   192
  0
VERTEX
  5
21F
330
1A1
100
AcDbEntity
  8
Q-SPCQ
100
AcDbVertex
100
AcDbPolyFaceMeshVertex
 10
354.0740635871888
 20
-358.949165725708
 30
520.2228610038758
 70
   192
  0
VERTEX
  5
220
330
1A1
100
AcDbEntity
  8
Q-SPCQ
100
AcDbVertex
100
AcDbPolyFaceMeshVertex
 10
354.0740635871888
 20
-358.9757629394532
 30
520.4250652313232
 70
   192
  0
VERTEX
  5
221
330
1A1
100
AcDbEntity
  8
Q-SPCQ
100
AcDbVertex
100
AcDbPolyFaceMeshVertex
 10
343.8070667266846
 20
-358.9223141670227
 30
520.1045179367065
 70
   192
  0
VERTEX
  5
222
330
1A1
100
AcDbEntity
  8
Q-SPCQ
100
AcDbVertex
100
AcDbPolyFaceMeshVertex
 10
343.8070667266846
 20
-358.9355401039124
 30
520.2475687980652
 70
   192
  0
VERTEX
  5
223
330
1A1
100
AcDbEntity
  8
Q-SPCQ
100
AcDbVertex
100
AcDbPolyFaceMeshVertex
 10
354.0740635871888
 20
-358.9225321769715
 30
520.0206567764282
 70
   192
  0
VERTEX
  5
224
330
1A1
100
AcDbEntity
  8
Q-SPCQ
100
AcDbVertex
100
AcDbPolyFaceMeshVertex
 10
343.8070667266846
 20
-358.9091245651245
 30
519.9615034103393
 70
   192
  0
VERTEX
  5
225
330
1A1
100
AcDbEntity
  8
Q-SPCQ
100
AcDbFaceRecord
 10
0.0
 20
0.0
 30
0.0
 70
   128
 71
    19
 72
    20
 73
   -21
 74
    18
  0
VERTEX
  5
226
330
1A1
100
AcDbEntity
  8
Q-SPCQ
100
AcDbFaceRecord
 10
0.0
 20
0.0
 30
0.0
 70
   128
 71
   -81
 72
   103
 73
   -65
  0
VERTEX
  5
227
330
1A1
100
AcDbEntity
  8
Q-SPCQ
100
AcDbFaceRecord
 10
0.0
 20
0.0
 30
0.0
 70
   128
 71
    48
 72
   -39
 73
   -69
  0
VERTEX
  5
228
330
1A1
100
AcDbEntity
  8
Q-SPCQ
100
AcDbFaceRecord
 10
0.0
 20
0.0
 30
0.0
 70
   128
 71
   -18
 72
    21
 73
   -22
 74
    17
  0
VERTEX
  5
229
330
1A1
100
AcDbEntity
  8
Q-SPCQ
100
AcDbFaceRecord
 10
0.0
 20
0.0
 30
0.0
 70
   128
 71
    72
 72
   -40
 73
   -50
  0
VERTEX
  5
22A
330
1A1
100
AcDbEntity
  8
Q-SPCQ
100
AcDbFaceRecord
 10
0.0
 20
0.0
 30
0.0
 70
   128
 71
   -22
 72
   -24
 73
   -11
  0
VERTEX
  5
22B
330
1A1
100
AcDbEntity
  8
Q-SPCQ
100
AcDbFaceRecord
 10
0.0
 20
0.0
 30
0.0
 70
   128
 71
  -102
 72
   118
 73
   -91
  0
VERTEX
  5
22C
330
1A1
100
AcDbEntity
  8
Q-SPCQ
100
AcDbFaceRecord
 10
0.0
 20
0.0
 30
0.0
 70
   128
 71
    22
 72
    23
 73
   -24
  0
VERTEX
  5
22D
330
1A1
100
AcDbEntity
  8
Q-SPCQ
100
AcDbFaceRecord
 10
0.0
 20
0.0
 30
0.0
 70
   128
 71
   -55
 72
    85
 73
   -94
  0
VERTEX
  5
22E
330
1A1
100
AcDbEntity
  8
Q-SPCQ
100
AcDbFaceRecord
 10
0.0
 20
0.0
 30
0.0
 70
   128
 71
   -47
 72
   -67
 73
    83
  0
VERTEX
  5
22F
330
1A1
100
AcDbEntity
  8
Q-SPCQ
100
AcDbFaceRecord
 10
0.0
 20
0.0
 30
0.0
 70
   128
 71
   -38
 72
    54
 73
    68
 74
   -61
  0
VERTEX
  5
230
330
1A1
100
AcDbEntity
  8
Q-SPCQ
100
AcDbFaceRecord
 10
0.0
 20
0.0
 30
0.0
 70
   128
 71
   -10
 72
    24
 73
   -25
  0
VERTEX
  5
231
330
1A1
100
AcDbEntity
  8
Q-SPCQ
100
AcDbFaceRecord
 10
0.0
 20
0.0
 30
0.0
 70
   128
 71
    77
 72
   -15
 73
   -49
  0
VERTEX
  5
232
330
1A1
100
AcDbEntity
  8
Q-SPCQ
100
AcDbFaceRecord
 10
0.0
 20
0.0
 30
0.0
 70
   128
 71
   -37
 72
    47
 73
   -52
  0
VERTEX
  5
233
330
1A1
100
AcDbEntity
  8
Q-SPCQ
100
AcDbFaceRecord
 10
0.0
 20
0.0
 30
0.0
 70
   128
 71
   -44
 72
    70
 73
   -75
  0
VERTEX
  5
234
330
1A1
100
AcDbEntity
  8
Q-SPCQ
100
AcDbFaceRecord
 10
0.0
 20
0.0
 30
0.0
 70
   128
 71
   113
 72
   -56
 73
   -98
  0
VERTEX
  5
235
330
1A1
100
AcDbEntity
  8
Q-SPCQ
100
AcDbFaceRecord
 10
0.0
 20
0.0
 30
0.0
 70
   128
 71
   -36
 72
   -76
 73
    89
  0
VERTEX
  5
236
330
1A1
100
AcDbEntity
  8
Q-SPCQ
100
AcDbFaceRecord
 10
0.0
 20
0.0
 30
0.0
 70
   128
 71
   -17
 72
   -43
 73
    16
  0
VERTEX
  5
237
330
1A1
100
AcDbEntity
  8
Q-SPCQ
100
AcDbFaceRecord
 10
0.0
 20
0.0
 30
0.0
 70
   128
 71
   -16
 72
   -48
 73
    69
  0
VERTEX
  5
238
330
1A1
100
AcDbEntity
  8
Q-SPCQ
100
AcDbFaceRecord
 10
0.0
 20
0.0
 30
0.0
 70
   128
 71
   -17
 72
    11
 73
   -35
  0
VERTEX
  5
239
330
1A1
100
AcDbEntity
  8
Q-SPCQ
100
AcDbFaceRecord
 10
0.0
 20
0.0
 30
0.0
 70
   128
 71
   -22
 72
   -11
 73
   -17
  0
VERTEX
  5
23A
330
1A1
100
AcDbEntity
  8
Q-SPCQ
100
AcDbFaceRecord
 10
0.0
 20
0.0
 30
0.0
 70
   128
 71
   -24
 72
    10
 73
   -11
  0
VERTEX
  5
23B
330
1A1
100
AcDbEntity
  8
Q-SPCQ
100
AcDbFaceRecord
 10
0.0
 20
0.0
 30
0.0
 70
   128
 71
   -67
 72
   -47
 73
    37
  0
VERTEX
  5
23C
330
1A1
100
AcDbEntity
  8
Q-SPCQ
100
AcDbFaceRecord
 10
0.0
 20
0.0
 30
0.0
 70
   128
 71
  -101
 72
   115
 73
   -84
  0
VERTEX
  5
23D
330
1A1
100
AcDbEntity
  8
Q-SPCQ
100
AcDbFaceRecord
 10
0.0
 20
0.0
 30
0.0
 70
   128
 71
   -25
 72
     9
 73
   -10
  0
VERTEX
  5
23E
330
1A1
100
AcDbEntity
  8
Q-SPCQ
100
AcDbFaceRecord
 10
0.0
 20
0.0
 30
0.0
 70
   128
 71
   -12
 72
   -51
 73
    52
  0
VERTEX
  5
23F
330
1A1
100
AcDbEntity
  8
Q-SPCQ
100
AcDbFaceRecord
 10
0.0
 20
0.0
 30
0.0
 70
   128
 71
    35
 72
   -43
 73
   -17
  0
VERTEX
  5
240
330
1A1
100
AcDbEntity
  8
Q-SPCQ
100
AcDbFaceRecord
 10
0.0
 20
0.0
 30
0.0
 70
   128
 71
    50
 72
   -45
 73
   -72
  0
VERTEX
  5
241
330
1A1
100
AcDbEntity
  8
Q-SPCQ
100
AcDbFaceRecord
 10
0.0
 20
0.0
 30
0.0
 70
   128
 71
    25
 72
   -26
 73
    -9
  0
VERTEX
  5
242
330
1A1
100
AcDbEntity
  8
Q-SPCQ
100
AcDbFaceRecord
 10
0.0
 20
0.0
 30
0.0
 70
   128
 71
   109
 72
   -54
 73
   -86
  0
VERTEX
  5
243
330
1A1
100
AcDbEntity
  8
Q-SPCQ
100
AcDbFaceRecord
 10
0.0
 20
0.0
 30
0.0
 70
   128
 71
    -6
 72
    28
 73
   -29
  0
VERTEX
  5
244
330
1A1
100
AcDbEntity
  8
Q-SPCQ
100
AcDbFaceRecord
 10
0.0
 20
0.0
 30
0.0
 70
   128
 71
    -7
 72
    27
 73
   -28
  0
VERTEX
  5
245
330
1A1
100
AcDbEntity
  8
Q-SPCQ
100
AcDbFaceRecord
 10
0.0
 20
0.0
 30
0.0
 70
   128
 71
    76
 72
   -63
 73
   -89
  0
VERTEX
  5
246
330
1A1
100
AcDbEntity
  8
Q-SPCQ
100
AcDbFaceRecord
 10
0.0
 20
0.0
 30
0.0
 70
   128
 71
    -5
 72
    29
 73
   -30
  0
VERTEX
  5
247
330
1A1
100
AcDbEntity
  8
Q-SPCQ
100
AcDbFaceRecord
 10
0.0
 20
0.0
 30
0.0
 70
   128
 71
   -55
 72
    92
 73
   -85
  0
VERTEX
  5
248
330
1A1
100
AcDbEntity
  8
Q-SPCQ
100
AcDbFaceRecord
 10
0.0
 20
0.0
 30
0.0
 70
   128
 71
    32
 72
   -33
 73
    -2
  0
VERTEX
  5
249
330
1A1
100
AcDbEntity
  8
Q-SPCQ
100
AcDbFaceRecord
 10
0.0
 20
0.0
 30
0.0
 70
   128
 71
   -53
 72
    15
 73
   -57
  0
VERTEX
  5
24A
330
1A1
100
AcDbEntity
  8
Q-SPCQ
100
AcDbFaceRecord
 10
0.0
 20
0.0
 30
0.0
 70
   128
 71
    -3
 72
    31
 73
   -32
  0
VERTEX
  5
24B
330
1A1
100
AcDbEntity
  8
Q-SPCQ
100
AcDbFaceRecord
 10
0.0
 20
0.0
 30
0.0
 70
   128
 71
   -52
 72
    51
 73
   -59
  0
VERTEX
  5
24C
330
1A1
100
AcDbEntity
  8
Q-SPCQ
100
AcDbFaceRecord
 10
0.0
 20
0.0
 30
0.0
 70
   128
 71
    -4
 72
    30
 73
   -31
  0
VERTEX
  5
24D
330
1A1
100
AcDbEntity
  8
Q-SPCQ
100
AcDbFaceRecord
 10
0.0
 20
0.0
 30
0.0
 70
   128
 71
    93
 72
   -46
 73
   -71
  0
VERTEX
  5
24E
330
1A1
100
AcDbEntity
  8
Q-SPCQ
100
AcDbFaceRecord
 10
0.0
 20
0.0
 30
0.0
 70
   128
 71
    74
 72
   -60
 73
   -42
 74
    67
  0
VERTEX
  5
24F
330
1A1
100
AcDbEntity
  8
Q-SPCQ
100
AcDbFaceRecord
 10
0.0
 20
0.0
 30
0.0
 70
   128
 71
    -1
 72
    33
 73
    34
  0
VERTEX
  5
250
330
1A1
100
AcDbEntity
  8
Q-SPCQ
100
AcDbFaceRecord
 10
0.0
 20
0.0
 30
0.0
 70
   128
 71
   -26
 72
     8
 73
    -9
  0
VERTEX
  5
251
330
1A1
100
AcDbEntity
  8
Q-SPCQ
100
AcDbFaceRecord
 10
0.0
 20
0.0
 30
0.0
 70
   128
 71
    26
 72
   -27
 73
    -8
  0
VERTEX
  5
252
330
1A1
100
AcDbEntity
  8
Q-SPCQ
100
AcDbFaceRecord
 10
0.0
 20
0.0
 30
0.0
 70
   128
 71
   -57
 72
    40
 73
   -53
  0
VERTEX
  5
253
330
1A1
100
AcDbEntity
  8
Q-SPCQ
100
AcDbFaceRecord
 10
0.0
 20
0.0
 30
0.0
 70
   128
 71
    -8
 72
   -27
 73
     7
  0
VERTEX
  5
254
330
1A1
100
AcDbEntity
  8
Q-SPCQ
100
AcDbFaceRecord
 10
0.0
 20
0.0
 30
0.0
 70
   128
 71
     6
 72
    -7
 73
   -28
  0
VERTEX
  5
255
330
1A1
100
AcDbEntity
  8
Q-SPCQ
100
AcDbFaceRecord
 10
0.0
 20
0.0
 30
0.0
 70
   128
 71
   -15
 72
    53
 73
   -49
  0
VERTEX
  5
256
330
1A1
100
AcDbEntity
  8
Q-SPCQ
100
AcDbFaceRecord
 10
0.0
 20
0.0
 30
0.0
 70
   128
 71
   -37
 72
   -52
 73
    59
  0
VERTEX
  5
257
330
1A1
100
AcDbEntity
  8
Q-SPCQ
100
AcDbFaceRecord
 10
0.0
 20
0.0
 30
0.0
 70
   128
 71
   -29
 72
     5
 73
    -6
  0
VERTEX
  5
258
330
1A1
100
AcDbEntity
  8
Q-SPCQ
100
AcDbFaceRecord
 10
0.0
 20
0.0
 30
0.0
 70
   128
 71
    -5
 72
   -30
 73
     4
  0
VERTEX
  5
259
330
1A1
100
AcDbEntity
  8
Q-SPCQ
100
AcDbFaceRecord
 10
0.0
 20
0.0
 30
0.0
 70
   128
 71
     3
 72
    -4
 73
   -31
  0
VERTEX
  5
25A
330
1A1
100
AcDbEntity
  8
Q-SPCQ
100
AcDbFaceRecord
 10
0.0
 20
0.0
 30
0.0
 70
   128
 71
   -61
 72
    94
 73
   -38
  0
VERTEX
  5
25B
330
1A1
100
AcDbEntity
  8
Q-SPCQ
100
AcDbFaceRecord
 10
0.0
 20
0.0
 30
0.0
 70
   128
 71
   -60
 72
    88
 73
   -42
  0
VERTEX
  5
25C
330
1A1
100
AcDbEntity
  8
Q-SPCQ
100
AcDbFaceRecord
 10
0.0
 20
0.0
 30
0.0
 70
   128
 71
     2
 72
    -3
 73
   -32
  0
VERTEX
  5
25D
330
1A1
100
AcDbEntity
  8
Q-SPCQ
100
AcDbFaceRecord
 10
0.0
 20
0.0
 30
0.0
 70
   128
 71
   -40
 72
    57
 73
   -50
  0
VERTEX
  5
25E
330
1A1
100
AcDbEntity
  8
Q-SPCQ
100
AcDbFaceRecord
 10
0.0
 20
0.0
 30
0.0
 70
   128
 71
   -33
 72
     1
 73
    -2
  0
VERTEX
  5
25F
330
1A1
100
AcDbEntity
  8
Q-SPCQ
100
AcDbFaceRecord
 10
0.0
 20
0.0
 30
0.0
 70
   128
 71
   -12
 72
    46
 73
   -51
  0
VERTEX
  5
260
330
1A1
100
AcDbEntity
  8
Q-SPCQ
100
AcDbFaceRecord
 10
0.0
 20
0.0
 30
0.0
 70
   128
 71
   125
 72
  -105
 73
  -121
  0
VERTEX
  5
261
330
1A1
100
AcDbEntity
  8
Q-SPCQ
100
AcDbFaceRecord
 10
0.0
 20
0.0
 30
0.0
 70
   128
 71
    71
 72
   -64
 73
   -93
  0
VERTEX
  5
262
330
1A1
100
AcDbEntity
  8
Q-SPCQ
100
AcDbFaceRecord
 10
0.0
 20
0.0
 30
0.0
 70
   128
 71
  -103
 72
   -41
 73
    58
  0
VERTEX
  5
263
330
1A1
100
AcDbEntity
  8
Q-SPCQ
100
AcDbFaceRecord
 10
0.0
 20
0.0
 30
0.0
 70
   128
 71
   -16
 72
    43
 73
   -48
  0
VERTEX
  5
264
330
1A1
100
AcDbEntity
  8
Q-SPCQ
100
AcDbFaceRecord
 10
0.0
 20
0.0
 30
0.0
 70
   128
 71
   -39
 72
    62
 73
   -69
  0
VERTEX
  5
265
330
1A1
100
AcDbEntity
  8
Q-SPCQ
100
AcDbFaceRecord
 10
0.0
 20
0.0
 30
0.0
 70
   128
 71
   -99
 72
    87
 73
   -80
  0
VERTEX
  5
266
330
1A1
100
AcDbEntity
  8
Q-SPCQ
100
AcDbFaceRecord
 10
0.0
 20
0.0
 30
0.0
 70
   128
 71
   -46
 72
    12
 73
   -71
  0
VERTEX
  5
267
330
1A1
100
AcDbEntity
  8
Q-SPCQ
100
AcDbFaceRecord
 10
0.0
 20
0.0
 30
0.0
 70
   128
 71
   -45
 72
    65
 73
   -72
  0
VERTEX
  5
268
330
1A1
100
AcDbEntity
  8
Q-SPCQ
100
AcDbFaceRecord
 10
0.0
 20
0.0
 30
0.0
 70
   128
 71
  -108
 72
   -95
 73
    66
  0
VERTEX
  5
269
330
1A1
100
AcDbEntity
  8
Q-SPCQ
100
AcDbFaceRecord
 10
0.0
 20
0.0
 30
0.0
 70
   128
 71
   -44
 72
   -75
 73
    78
  0
VERTEX
  5
26A
330
1A1
100
AcDbEntity
  8
Q-SPCQ
100
AcDbFaceRecord
 10
0.0
 20
0.0
 30
0.0
 70
   128
 71
   -36
 72
    73
 73
   -76
  0
VERTEX
  5
26B
330
1A1
100
AcDbEntity
  8
Q-SPCQ
100
AcDbFaceRecord
 10
0.0
 20
0.0
 30
0.0
 70
   128
 71
   -78
 72
   -77
 73
    49
  0
VERTEX
  5
26C
330
1A1
100
AcDbEntity
  8
Q-SPCQ
100
AcDbFaceRecord
 10
0.0
 20
0.0
 30
0.0
 70
   128
 71
   -77
 72
   -78
 73
    75
  0
VERTEX
  5
26D
330
1A1
100
AcDbEntity
  8
Q-SPCQ
100
AcDbFaceRecord
 10
0.0
 20
0.0
 30
0.0
 70
   128
 71
   100
 72
  -109
 73
   -79
 74
   106
  0
VERTEX
  5
26E
330
1A1
100
AcDbEntity
  8
Q-SPCQ
100
AcDbFaceRecord
 10
0.0
 20
0.0
 30
0.0
 70
   128
 71
   -87
 72
   107
 73
   -70
  0
VERTEX
  5
26F
330
1A1
100
AcDbEntity
  8
Q-SPCQ
100
AcDbFaceRecord
 10
0.0
 20
0.0
 30
0.0
 70
   128
 71
   -65
 72
    90
 73
   -81
  0
VERTEX
  5
270
330
1A1
100
AcDbEntity
  8
Q-SPCQ
100
AcDbFaceRecord
 10
0.0
 20
0.0
 30
0.0
 70
   128
 71
   116
 72
   -82
 73
  -111
  0
VERTEX
  5
271
330
1A1
100
AcDbEntity
  8
Q-SPCQ
100
AcDbFaceRecord
 10
0.0
 20
0.0
 30
0.0
 70
   128
 71
   -67
 72
    42
 73
   -83
  0
VERTEX
  5
272
330
1A1
100
AcDbEntity
  8
Q-SPCQ
100
AcDbFaceRecord
 10
0.0
 20
0.0
 30
0.0
 70
   128
 71
  -115
 72
   -58
 73
    41
  0
VERTEX
  5
273
330
1A1
100
AcDbEntity
  8
Q-SPCQ
100
AcDbFaceRecord
 10
0.0
 20
0.0
 30
0.0
 70
   128
 71
   104
 72
   -62
 73
   -92
 74
    55
  0
VERTEX
  5
274
330
1A1
100
AcDbEntity
  8
Q-SPCQ
100
AcDbFaceRecord
 10
0.0
 20
0.0
 30
0.0
 70
   128
 71
   -54
 72
    38
 73
   -86
  0
VERTEX
  5
275
330
1A1
100
AcDbEntity
  8
Q-SPCQ
100
AcDbFaceRecord
 10
0.0
 20
0.0
 30
0.0
 70
   128
 71
   -70
 72
    44
 73
   -87
  0
VERTEX
  5
276
330
1A1
100
AcDbEntity
  8
Q-SPCQ
100
AcDbFaceRecord
 10
0.0
 20
0.0
 30
0.0
 70
   128
 71
   -63
 72
    80
 73
   -89
  0
VERTEX
  5
277
330
1A1
100
AcDbEntity
  8
Q-SPCQ
100
AcDbFaceRecord
 10
0.0
 20
0.0
 30
0.0
 70
   128
 71
   -65
 72
    45
 73
   -90
  0
VERTEX
  5
278
330
1A1
100
AcDbEntity
  8
Q-SPCQ
100
AcDbFaceRecord
 10
0.0
 20
0.0
 30
0.0
 70
   128
 71
  -118
 72
   -66
 73
    95
  0
VERTEX
  5
279
330
1A1
100
AcDbEntity
  8
Q-SPCQ
100
AcDbFaceRecord
 10
0.0
 20
0.0
 30
0.0
 70
   128
 71
   -62
 72
    39
 73
   -92
  0
VERTEX
  5
27A
330
1A1
100
AcDbEntity
  8
Q-SPCQ
100
AcDbFaceRecord
 10
0.0
 20
0.0
 30
0.0
 70
   128
 71
   -64
 72
    84
 73
   -93
  0
VERTEX
  5
27B
330
1A1
100
AcDbEntity
  8
Q-SPCQ
100
AcDbFaceRecord
 10
0.0
 20
0.0
 30
0.0
 70
   128
 71
   -55
 72
   -94
 73
    61
  0
VERTEX
  5
27C
330
1A1
100
AcDbEntity
  8
Q-SPCQ
100
AcDbFaceRecord
 10
0.0
 20
0.0
 30
0.0
 70
   128
 71
   -97
 72
   108
 73
   -73
  0
VERTEX
  5
27D
330
1A1
100
AcDbEntity
  8
Q-SPCQ
100
AcDbFaceRecord
 10
0.0
 20
0.0
 30
0.0
 70
   128
 71
  -113
 72
    98
 73
    96
 74
  -116
  0
VERTEX
  5
27E
330
1A1
100
AcDbEntity
  8
Q-SPCQ
100
AcDbFaceRecord
 10
0.0
 20
0.0
 30
0.0
 70
   128
 71
   -73
 72
    36
 73
   -97
  0
VERTEX
  5
27F
330
1A1
100
AcDbEntity
  8
Q-SPCQ
100
AcDbFaceRecord
 10
0.0
 20
0.0
 30
0.0
 70
   128
 71
   -56
 72
    91
 73
   -98
  0
VERTEX
  5
280
330
1A1
100
AcDbEntity
  8
Q-SPCQ
100
AcDbFaceRecord
 10
0.0
 20
0.0
 30
0.0
 70
   128
 71
   -80
 72
    63
 73
   -99
  0
VERTEX
  5
281
330
1A1
100
AcDbEntity
  8
Q-SPCQ
100
AcDbFaceRecord
 10
0.0
 20
0.0
 30
0.0
 70
   128
 71
  -106
 72
    79
 73
   -88
  0
VERTEX
  5
282
330
1A1
100
AcDbEntity
  8
Q-SPCQ
100
AcDbFaceRecord
 10
0.0
 20
0.0
 30
0.0
 70
   128
 71
   -84
 72
    64
 73
  -101
  0
VERTEX
  5
283
330
1A1
100
AcDbEntity
  8
Q-SPCQ
100
AcDbFaceRecord
 10
0.0
 20
0.0
 30
0.0
 70
   128
 71
   -91
 72
   110
 73
  -102
  0
VERTEX
  5
284
330
1A1
100
AcDbEntity
  8
Q-SPCQ
100
AcDbFaceRecord
 10
0.0
 20
0.0
 30
0.0
 70
   128
 71
   -41
 72
  -103
 73
    81
  0
VERTEX
  5
285
330
1A1
100
AcDbEntity
  8
Q-SPCQ
100
AcDbFaceRecord
 10
0.0
 20
0.0
 30
0.0
 70
   128
 71
  -126
 72
   129
 73
  -123
  0
VERTEX
  5
286
330
1A1
100
AcDbEntity
  8
Q-SPCQ
100
AcDbFaceRecord
 10
0.0
 20
0.0
 30
0.0
 70
   128
 71
   -88
 72
    60
 73
  -106
  0
VERTEX
  5
287
330
1A1
100
AcDbEntity
  8
Q-SPCQ
100
AcDbFaceRecord
 10
0.0
 20
0.0
 30
0.0
 70
   128
 71
   -87
 72
    99
 73
  -107
  0
VERTEX
  5
288
330
1A1
100
AcDbEntity
  8
Q-SPCQ
100
AcDbFaceRecord
 10
0.0
 20
0.0
 30
0.0
 70
   128
 71
   -95
 72
  -108
 73
    97
  0
VERTEX
  5
289
330
1A1
100
AcDbEntity
  8
Q-SPCQ
100
AcDbFaceRecord
 10
0.0
 20
0.0
 30
0.0
 70
   128
 71
   -79
 72
  -109
 73
    86
  0
VERTEX
  5
28A
330
1A1
100
AcDbEntity
  8
Q-SPCQ
100
AcDbFaceRecord
 10
0.0
 20
0.0
 30
0.0
 70
   128
 71
   -91
 72
    56
 73
  -110
  0
VERTEX
  5
28B
330
1A1
100
AcDbEntity
  8
Q-SPCQ
100
AcDbFaceRecord
 10
0.0
 20
0.0
 30
0.0
 70
   128
 71
   -82
 72
   114
 73
  -111
  0
VERTEX
  5
28C
330
1A1
100
AcDbEntity
  8
Q-SPCQ
100
AcDbFaceRecord
 10
0.0
 20
0.0
 30
0.0
 70
   128
 71
  -119
 72
  -112
 73
   120
  0
VERTEX
  5
28D
330
1A1
100
AcDbEntity
  8
Q-SPCQ
100
AcDbFaceRecord
 10
0.0
 20
0.0
 30
0.0
 70
   128
 71
  -120
 72
  -114
 73
    82
  0
VERTEX
  5
28E
330
1A1
100
AcDbEntity
  8
Q-SPCQ
100
AcDbFaceRecord
 10
0.0
 20
0.0
 30
0.0
 70
   128
 71
   -58
 72
  -115
 73
   101
  0
VERTEX
  5
28F
330
1A1
100
AcDbEntity
  8
Q-SPCQ
100
AcDbFaceRecord
 10
0.0
 20
0.0
 30
0.0
 70
   128
 71
  -113
 72
  -116
 73
   122
  0
VERTEX
  5
290
330
1A1
100
AcDbEntity
  8
Q-SPCQ
100
AcDbFaceRecord
 10
0.0
 20
0.0
 30
0.0
 70
   128
 71
   121
 72
  -117
 73
  -124
  0
VERTEX
  5
291
330
1A1
100
AcDbEntity
  8
Q-SPCQ
100
AcDbFaceRecord
 10
0.0
 20
0.0
 30
0.0
 70
   128
 71
   -66
 72
  -118
 73
   102
  0
VERTEX
  5
292
330
1A1
100
AcDbEntity
  8
Q-SPCQ
100
AcDbFaceRecord
 10
0.0
 20
0.0
 30
0.0
 70
   128
 71
  -112
 72
  -119
 73
   105
  0
VERTEX
  5
293
330
1A1
100
AcDbEntity
  8
Q-SPCQ
100
AcDbFaceRecord
 10
0.0
 20
0.0
 30
0.0
 70
   128
 71
  -114
 72
  -120
 73
   112
  0
VERTEX
  5
294
330
1A1
100
AcDbEntity
  8
Q-SPCQ
100
AcDbFaceRecord
 10
0.0
 20
0.0
 30
0.0
 70
   128
 71
  -105
 72
   119
 73
  -121
  0
VERTEX
  5
295
330
1A1
100
AcDbEntity
  8
Q-SPCQ
100
AcDbFaceRecord
 10
0.0
 20
0.0
 30
0.0
 70
   128
 71
  -116
 72
   111
 73
  -122
  0
VERTEX
  5
296
330
1A1
100
AcDbEntity
  8
Q-SPCQ
100
AcDbFaceRecord
 10
0.0
 20
0.0
 30
0.0
 70
   128
 71
  -130
 72
   131
 73
  -128
  0
VERTEX
  5
297
330
1A1
100
AcDbEntity
  8
Q-SPCQ
100
AcDbFaceRecord
 10
0.0
 20
0.0
 30
0.0
 70
   128
 71
  -117
 72
   123
 73
  -124
  0
VERTEX
  5
298
330
1A1
100
AcDbEntity
  8
Q-SPCQ
100
AcDbFaceRecord
 10
0.0
 20
0.0
 30
0.0
 70
   128
 71
  -121
 72
   124
 73
  -125
  0
VERTEX
  5
299
330
1A1
100
AcDbEntity
  8
Q-SPCQ
100
AcDbFaceRecord
 10
0.0
 20
0.0
 30
0.0
 70
   128
 71
  -123
 72
   127
 73
  -126
  0
VERTEX
  5
29A
330
1A1
100
AcDbEntity
  8
Q-SPCQ
100
AcDbFaceRecord
 10
0.0
 20
0.0
 30
0.0
 70
   128
 71
  -123
 72
   117
 73
  -127
  0
VERTEX
  5
29B
330
1A1
100
AcDbEntity
  8
Q-SPCQ
100
AcDbFaceRecord
 10
0.0
 20
0.0
 30
0.0
 70
   128
 71
  -131
 72
    13
 73
    14
  0
VERTEX
  5
29C
330
1A1
100
AcDbEntity
  8
Q-SPCQ
100
AcDbFaceRecord
 10
0.0
 20
0.0
 30
0.0
 70
   128
 71
  -126
 72
   128
 73
  -129
  0
VERTEX
  5
29D
330
1A1
100
AcDbEntity
  8
Q-SPCQ
100
AcDbFaceRecord
 10
0.0
 20
0.0
 30
0.0
 70
   128
 71
  -128
 72
   126
 73
  -130
  0
VERTEX
  5
29E
330
1A1
100
AcDbEntity
  8
Q-SPCQ
100
AcDbFaceRecord
 10
0.0
 20
0.0
 30
0.0
 70
   128
 71
   -13
 72
  -131
 73
   130
  0
SEQEND
  5
29F
330
1A1
100
AcDbEntity
  8
Q-SPCQ
  0
POLYLINE
  5
2A0
330
12F
100
AcDbEntity
  8
Q-SPCQ
100
AcDbPolyFaceMesh
 66
     1
 10
0.0
 20
0.0
 30
0.0
 70
    64
 71
   131
 72
   126
1001
REVIT
1002
{
1070
     2
1000
-2001350
1002
}
  0
VERTEX
  5
2A1
330
2A0
100
AcDbEntity
  8
Q-SPCQ
100
AcDbVertex
100
AcDbPolyFaceMeshVertex
 10
354.0740635871888
 20
-358.8958986282349
 30
519.8184525489807
 70
   192
  0
VERTEX
  5
2A2
330
2A0
100
AcDbEntity
  8
Q-SPCQ
100
AcDbVertex
100
AcDbPolyFaceMeshVertex
 10
354.0740635871888
 20
-359.7477725028992
 30
513.3479536056519
 70
   192
  0
VERTEX
  5
2A3
330
2A0
100
AcDbEntity
  8
Q-SPCQ
100
AcDbVertex
100
AcDbPolyFaceMeshVertex
 10
354.0740635871888
 20
-362.2452944755555
 30
507.3184524536133
 70
   192
  0
VERTEX
  5
2A4
330
2A0
100
AcDbEntity
  8
Q-SPCQ
100
AcDbVertex
100
AcDbPolyFaceMeshVertex
 10
354.0740635871888
 20
-366.2182351112366
 30
502.1407888412475
 70
   192
  0
VERTEX
  5
2A5
330
2A0
100
AcDbEntity
  8
Q-SPCQ
100
AcDbVertex
100
AcDbPolyFaceMeshVertex
 10
354.0740635871888
 20
-371.3958987236023
 30
498.1678118705749
 70
   192
  0
VERTEX
  5
2A6
330
2A0
100
AcDbEntity
  8
Q-SPCQ
100
AcDbVertex
100
AcDbPolyFaceMeshVertex
 10
354.0740635871888
 20
-377.4254362106323
 30
495.6702898979187
 70
   192
  0
VERTEX
  5
2A7
330
2A0
100
AcDbEntity
  8
Q-SPCQ
100
AcDbVertex
100
AcDbPolyFaceMeshVertex
 10
354.0740635871888
 20
-383.8958988189697
 30
494.8184523582458
 70
   192
  0
VERTEX
  5
2A8
330
2A0
100
AcDbEntity
  8
Q-SPCQ
100
AcDbVertex
100
AcDbPolyFaceMeshVertex
 10
354.0740635871888
 20
-390.3663977622986
 30
495.6702898979187
 70
   192
  0
VERTEX
  5
2A9
330
2A0
100
AcDbEntity
  8
Q-SPCQ
100
AcDbVertex
100
AcDbPolyFaceMeshVertex
 10
354.0740635871888
 20
-396.3958989143372
 30
498.1678118705749
 70
   192
  0
VERTEX
  5
2AA
330
2A0
100
AcDbEntity
  8
Q-SPCQ
100
AcDbVertex
100
AcDbPolyFaceMeshVertex
 10
354.0740635871888
 20
-401.5735988616943
 30
502.1407888412475
 70
   192
  0
VERTEX
  5
2AB
330
2A0
100
AcDbEntity
  8
Q-SPCQ
100
AcDbVertex
100
AcDbPolyFaceMeshVertex
 10
354.0740635871888
 20
-405.5465394973754
 30
507.3184524536133
 70
   192
  0
VERTEX
  5
2AC
330
2A0
100
AcDbEntity
  8
Q-SPCQ
100
AcDbVertex
100
AcDbPolyFaceMeshVertex
 10
354.0740635871888
 20
-408.0440614700317
 30
513.3479536056519
 70
   192
  0
VERTEX
  5
2AD
330
2A0
100
AcDbEntity
  8
Q-SPCQ
100
AcDbVertex
100
AcDbPolyFaceMeshVertex
 10
354.0740635871888
 20
-408.8958990097045
 30
519.8184525489807
 70
   192
  0
VERTEX
  5
2AE
330
2A0
100
AcDbEntity
  8
Q-SPCQ
100
AcDbVertex
100
AcDbPolyFaceMeshVertex
 10
-343.8070667266846
 20
-408.8958990097045
 30
519.8184525489807
 70
   192
  0
VERTEX
  5
2AF
330
2A0
100
AcDbEntity
  8
Q-SPCQ
100
AcDbVertex
100
AcDbPolyFaceMeshVertex
 10
-343.8070667266846
 20
-408.1052132606506
 30
513.5806792259216
 70
   192
  0
VERTEX
  5
2B0
330
2A0
100
AcDbEntity
  8
Q-SPCQ
100
AcDbVertex
100
AcDbPolyFaceMeshVertex
 10
-343.8070667266846
 20
-405.7834073066711
 30
507.7379762649536
 70
   192
  0
VERTEX
  5
2B1
330
2A0
100
AcDbEntity
  8
Q-SPCQ
100
AcDbVertex
100
AcDbPolyFaceMeshVertex
 10
-343.8070667266846
 20
-402.077383518219
 30
502.6593618392944
 70
   192
  0
VERTEX
  5
2B2
330
2A0
100
AcDbEntity
  8
Q-SPCQ
100
AcDbVertex
100
AcDbPolyFaceMeshVertex
 10
-343.8070667266846
 20
-397.2217569351196
 30
498.6660736083984
 70
   192
  0
VERTEX
  5
2B3
330
2A0
100
AcDbEntity
  8
Q-SPCQ
100
AcDbVertex
100
AcDbPolyFaceMeshVertex
 10
-343.8070667266846
 20
-391.5236309051514
 30
496.0104944229126
 70
   192
  0
VERTEX
  5
2B4
330
2A0
100
AcDbEntity
  8
Q-SPCQ
100
AcDbVertex
100
AcDbPolyFaceMeshVertex
 10
-343.8070667266846
 20
-385.3433395385743
 30
494.860382938385
 70
   192
  0
VERTEX
  5
2B5
330
2A0
100
AcDbEntity
  8
Q-SPCQ
100
AcDbVertex
100
AcDbPolyFaceMeshVertex
 10
-343.8070667266846
 20
-379.0717383384705
 30
495.2883001327514
 70
   192
  0
VERTEX
  5
2B6
330
2A0
100
AcDbEntity
  8
Q-SPCQ
100
AcDbVertex
100
AcDbPolyFaceMeshVertex
 10
-343.8070667266846
 20
-373.105242061615
 30
497.2671401023865
 70
   192
  0
VERTEX
  5
2B7
330
2A0
100
AcDbEntity
  8
Q-SPCQ
100
AcDbVertex
100
AcDbPolyFaceMeshVertex
 10
-343.8070667266846
 20
-367.8211169242859
 30
500.6716197967529
 70
   192
  0
VERTEX
  5
2B8
330
2A0
100
AcDbEntity
  8
Q-SPCQ
100
AcDbVertex
100
AcDbPolyFaceMeshVertex
 10
-343.8070667266846
 20
-363.5532814979553
 30
505.2865270614624
 70
   192
  0
VERTEX
  5
2B9
330
2A0
100
AcDbEntity
  8
Q-SPCQ
100
AcDbVertex
100
AcDbPolyFaceMeshVertex
 10
-343.8070667266846
 20
-360.5721044540405
 30
510.8184568405151
 70
   192
  0
VERTEX
  5
2BA
330
2A0
100
AcDbEntity
  8
Q-SPCQ
100
AcDbVertex
100
AcDbPolyFaceMeshVertex
 10
-280.3704046726227
 20
-360.5721044540405
 30
510.8184568405151
 70
   192
  0
VERTEX
  5
2BB
330
2A0
100
AcDbEntity
  8
Q-SPCQ
100
AcDbVertex
100
AcDbPolyFaceMeshVertex
 10
-280.3704046726227
 20
-359.3185472488404
 30
515.2410793304443
 70
   192
  0
VERTEX
  5
2BC
330
2A0
100
AcDbEntity
  8
Q-SPCQ
100
AcDbVertex
100
AcDbPolyFaceMeshVertex
 10
-280.3704046726227
 20
-358.8958986282349
 30
519.8184525489807
 70
   192
  0
VERTEX
  5
2BD
330
2A0
100
AcDbEntity
  8
Q-SPCQ
100
AcDbVertex
100
AcDbPolyFaceMeshVertex
 10
280.3704046726227
 20
-358.8958986282349
 30
519.8184525489807
 70
   192
  0
VERTEX
  5
2BE
330
2A0
100
AcDbEntity
  8
Q-SPCQ
100
AcDbVertex
100
AcDbPolyFaceMeshVertex
 10
280.3704046726227
 20
-359.3185472488404
 30
515.2410793304443
 70
   192
  0
VERTEX
  5
2BF
330
2A0
100
AcDbEntity
  8
Q-SPCQ
100
AcDbVertex
100
AcDbPolyFaceMeshVertex
 10
280.3704046726227
 20
-360.5721044540405
 30
510.8184568405151
 70
   192
  0
VERTEX
  5
2C0
330
2A0
100
AcDbEntity
  8
Q-SPCQ
100
AcDbVertex
100
AcDbPolyFaceMeshVertex
 10
343.8070667266846
 20
-360.5721044540405
 30
510.8184568405151
 70
   192
  0
VERTEX
  5
2C1
330
2A0
100
AcDbEntity
  8
Q-SPCQ
100
AcDbVertex
100
AcDbPolyFaceMeshVertex
 10
343.8070667266846
 20
-359.3185472488404
 30
515.2410793304443
 70
   192
  0
VERTEX
  5
2C2
330
2A0
100
AcDbEntity
  8
Q-SPCQ
100
AcDbVertex
100
AcDbPolyFaceMeshVertex
 10
343.8070667266846
 20
-358.8958986282349
 30
519.8184525489807
 70
   192
  0
VERTEX
  5
2C3
330
2A0
100
AcDbEntity
  8
Q-SPCQ
100
AcDbVertex
100
AcDbPolyFaceMeshVertex
 10
354.0740635871888
 20
-359.3218537330628
 30
516.5832212448121
 70
   192
  0
VERTEX
  5
2C4
330
2A0
100
AcDbEntity
  8
Q-SPCQ
100
AcDbVertex
100
AcDbPolyFaceMeshVertex
 10
354.0740635871888
 20
-360.9965334892273
 30
510.3332030296326
 70
   192
  0
VERTEX
  5
2C5
330
2A0
100
AcDbEntity
  8
Q-SPCQ
100
AcDbVertex
100
AcDbPolyFaceMeshVertex
 10
343.8070667266846
 20
-359.9453258514405
 30
513.0297680854797
 70
   192
  0
VERTEX
  5
2C6
330
2A0
100
AcDbEntity
  8
Q-SPCQ
100
AcDbVertex
100
AcDbPolyFaceMeshVertex
 10
354.0740635871888
 20
-359.534813117981
 30
514.965587425232
 70
   192
  0
VERTEX
  5
2C7
330
2A0
100
AcDbEntity
  8
Q-SPCQ
100
AcDbVertex
100
AcDbPolyFaceMeshVertex
 10
354.0740635871888
 20
-360.3721529960632
 30
511.8405964851379
 70
   192
  0
VERTEX
  5
2C8
330
2A0
100
AcDbEntity
  8
Q-SPCQ
100
AcDbVertex
100
AcDbPolyFaceMeshVertex
 10
343.8070667266846
 20
-359.6319365501404
 30
514.1354055404662
 70
   192
  0
VERTEX
  5
2C9
330
2A0
100
AcDbEntity
  8
Q-SPCQ
100
AcDbVertex
100
AcDbPolyFaceMeshVertex
 10
354.0740635871888
 20
-359.4283152580262
 30
515.774404335022
 70
   192
  0
VERTEX
  5
2CA
330
2A0
100
AcDbEntity
  8
Q-SPCQ
100
AcDbVertex
100
AcDbPolyFaceMeshVertex
 10
354.0740635871888
 20
-360.6843432426453
 30
511.0868997573852
 70
   192
  0
VERTEX
  5
2CB
330
2A0
100
AcDbEntity
  8
Q-SPCQ
100
AcDbVertex
100
AcDbPolyFaceMeshVertex
 10
354.0740635871888
 20
-360.0599627494812
 30
512.5942932128906
 70
   192
  0
VERTEX
  5
2CC
330
2A0
100
AcDbEntity
  8
Q-SPCQ
100
AcDbVertex
100
AcDbPolyFaceMeshVertex
 10
343.8070667266846
 20
-359.7886130332947
 30
513.5825686454772
 70
   192
  0
VERTEX
  5
2CD
330
2A0
100
AcDbEntity
  8
Q-SPCQ
100
AcDbVertex
100
AcDbPolyFaceMeshVertex
 10
343.8070667266846
 20
-359.4752237319946
 30
514.6882424354553
 70
   192
  0
VERTEX
  5
2CE
330
2A0
100
AcDbEntity
  8
Q-SPCQ
100
AcDbVertex
100
AcDbPolyFaceMeshVertex
 10
354.0740635871888
 20
-359.4815823554993
 30
515.3699958801269
 70
   192
  0
VERTEX
  5
2CF
330
2A0
100
AcDbEntity
  8
Q-SPCQ
100
AcDbVertex
100
AcDbPolyFaceMeshVertex
 10
354.0740635871888
 20
-360.8404383659363
 30
510.7100695610046
 70
   192
  0
VERTEX
  5
2D0
330
2A0
100
AcDbEntity
  8
Q-SPCQ
100
AcDbVertex
100
AcDbPolyFaceMeshVertex
 10
354.0740635871888
 20
-359.9038676261902
 30
512.9711234092712
 70
   192
  0
VERTEX
  5
2D1
330
2A0
100
AcDbEntity
  8
Q-SPCQ
100
AcDbVertex
100
AcDbPolyFaceMeshVertex
 10
343.8070667266846
 20
-359.8669876098633
 30
513.3061683654785
 70
   192
  0
VERTEX
  5
2D2
330
2A0
100
AcDbEntity
  8
Q-SPCQ
100
AcDbVertex
100
AcDbPolyFaceMeshVertex
 10
343.8070667266846
 20
-359.3968854904175
 30
514.9646427154541
 70
   192
  0
VERTEX
  5
2D3
330
2A0
100
AcDbEntity
  8
Q-SPCQ
100
AcDbVertex
100
AcDbPolyFaceMeshVertex
 10
354.0740635871888
 20
-359.5081795692444
 30
515.1677916526795
 70
   192
  0
VERTEX
  5
2D4
330
2A0
100
AcDbEntity
  8
Q-SPCQ
100
AcDbVertex
100
AcDbPolyFaceMeshVertex
 10
354.0740635871888
 20
-360.7623908042908
 30
510.8984664916992
 70
   192
  0
VERTEX
  5
2D5
330
2A0
100
AcDbEntity
  8
Q-SPCQ
100
AcDbVertex
100
AcDbPolyFaceMeshVertex
 10
354.0740635871888
 20
-359.8258200645447
 30
513.1595566749573
 70
   192
  0
VERTEX
  5
2D6
330
2A0
100
AcDbEntity
  8
Q-SPCQ
100
AcDbVertex
100
AcDbPolyFaceMeshVertex
 10
343.8070667266846
 20
-359.1072229385376
 30
517.5297477722168
 70
   192
  0
VERTEX
  5
2D7
330
2A0
100
AcDbEntity
  8
Q-SPCQ
100
AcDbVertex
100
AcDbPolyFaceMeshVertex
 10
343.8070667266846
 20
-359.3577163696289
 30
515.1028610229492
 70
   192
  0
VERTEX
  5
2D8
330
2A0
100
AcDbEntity
  8
Q-SPCQ
100
AcDbVertex
100
AcDbPolyFaceMeshVertex
 10
354.0740635871888
 20
-359.6412746429443
 30
514.1567705154419
 70
   192
  0
VERTEX
  5
2D9
330
2A0
100
AcDbEntity
  8
Q-SPCQ
100
AcDbVertex
100
AcDbPolyFaceMeshVertex
 10
343.8070667266846
 20
-359.212885093689
 30
516.3854135513305
 70
   192
  0
VERTEX
  5
2DA
330
2A0
100
AcDbEntity
  8
Q-SPCQ
100
AcDbVertex
100
AcDbPolyFaceMeshVertex
 10
343.8070667266846
 20
-359.9061567306518
 30
513.1679500579833
 70
   192
  0
VERTEX
  5
2DB
330
2A0
100
AcDbEntity
  8
Q-SPCQ
100
AcDbVertex
100
AcDbPolyFaceMeshVertex
 10
343.8070667266846
 20
-360.2587151527405
 30
511.9240942955017
 70
   192
  0
VERTEX
  5
2DC
330
2A0
100
AcDbEntity
  8
Q-SPCQ
100
AcDbVertex
100
AcDbPolyFaceMeshVertex
 10
343.8070667266846
 20
-359.2657161712647
 30
515.8132464408875
 70
   192
  0
VERTEX
  5
2DD
330
2A0
100
AcDbEntity
  8
Q-SPCQ
100
AcDbVertex
100
AcDbPolyFaceMeshVertex
 10
354.0740635871888
 20
-359.5880438804627
 30
514.5611789703369
 70
   192
  0
VERTEX
  5
2DE
330
2A0
100
AcDbEntity
  8
Q-SPCQ
100
AcDbVertex
100
AcDbPolyFaceMeshVertex
 10
354.0740635871888
 20
-359.6945417404175
 30
513.7523620605469
 70
   192
  0
VERTEX
  5
2DF
330
2A0
100
AcDbEntity
  8
Q-SPCQ
100
AcDbVertex
100
AcDbPolyFaceMeshVertex
 10
343.8070667266846
 20
-359.1600540161133
 30
516.9575806617737
 70
   192
  0
VERTEX
  5
2E0
330
2A0
100
AcDbEntity
  8
Q-SPCQ
100
AcDbVertex
100
AcDbPolyFaceMeshVertex
 10
343.8070667266846
 20
-360.4154279708863
 30
511.3712574005127
 70
   192
  0
VERTEX
  5
2E1
330
2A0
100
AcDbEntity
  8
Q-SPCQ
100
AcDbVertex
100
AcDbPolyFaceMeshVertex
 10
343.8070667266846
 20
-360.1020023345947
 30
512.4769311904907
 70
   192
  0
VERTEX
  5
2E2
330
2A0
100
AcDbEntity
  8
Q-SPCQ
100
AcDbVertex
100
AcDbPolyFaceMeshVertex
 10
343.8070667266846
 20
-359.2921317100525
 30
515.5271447181702
 70
   192
  0
VERTEX
  5
2E3
330
2A0
100
AcDbEntity
  8
Q-SPCQ
100
AcDbVertex
100
AcDbPolyFaceMeshVertex
 10
354.0740635871888
 20
-359.5614103317261
 30
514.7633831977844
 70
   192
  0
VERTEX
  5
2E4
330
2A0
100
AcDbEntity
  8
Q-SPCQ
100
AcDbVertex
100
AcDbPolyFaceMeshVertex
 10
343.8070667266846
 20
-360.4937662124634
 30
511.0948571205139
 70
   192
  0
VERTEX
  5
2E5
330
2A0
100
AcDbEntity
  8
Q-SPCQ
100
AcDbVertex
100
AcDbPolyFaceMeshVertex
 10
354.0740635871888
 20
-359.7211389541626
 30
513.5501578330994
 70
   192
  0
VERTEX
  5
2E6
330
2A0
100
AcDbEntity
  8
Q-SPCQ
100
AcDbVertex
100
AcDbPolyFaceMeshVertex
 10
343.8070667266846
 20
-359.1864695549011
 30
516.6715152740478
 70
   192
  0
VERTEX
  5
2E7
330
2A0
100
AcDbEntity
  8
Q-SPCQ
100
AcDbVertex
100
AcDbPolyFaceMeshVertex
 10
343.8070667266846
 20
-360.3370533943177
 30
511.6476940155029
 70
   192
  0
VERTEX
  5
2E8
330
2A0
100
AcDbEntity
  8
Q-SPCQ
100
AcDbVertex
100
AcDbPolyFaceMeshVertex
 10
343.8070667266846
 20
-360.0236640930176
 30
512.7533314704895
 70
   192
  0
VERTEX
  5
2E9
330
2A0
100
AcDbEntity
  8
Q-SPCQ
100
AcDbVertex
100
AcDbPolyFaceMeshVertex
 10
343.8070667266846
 20
-359.3053213119507
 30
515.3840938568115
 70
   192
  0
VERTEX
  5
2EA
330
2A0
100
AcDbEntity
  8
Q-SPCQ
100
AcDbVertex
100
AcDbPolyFaceMeshVertex
 10
343.8070667266846
 20
-360.5329353332519
 30
510.9566388130188
 70
   192
  0
VERTEX
  5
2EB
330
2A0
100
AcDbEntity
  8
Q-SPCQ
100
AcDbVertex
100
AcDbPolyFaceMeshVertex
 10
343.8070667266846
 20
-359.1996591567993
 30
516.5284644126892
 70
   192
  0
VERTEX
  5
2EC
330
2A0
100
AcDbEntity
  8
Q-SPCQ
100
AcDbVertex
100
AcDbPolyFaceMeshVertex
 10
343.8070667266846
 20
-360.2978842735291
 30
511.7858759880066
 70
   192
  0
VERTEX
  5
2ED
330
2A0
100
AcDbEntity
  8
Q-SPCQ
100
AcDbVertex
100
AcDbPolyFaceMeshVertex
 10
343.8070667266846
 20
-360.0628332138062
 30
512.6151494979858
 70
   192
  0
VERTEX
  5
2EE
330
2A0
100
AcDbEntity
  8
Q-SPCQ
100
AcDbVertex
100
AcDbPolyFaceMeshVertex
 10
343.8070667266846
 20
-359.7102747917176
 30
513.8590052604675
 70
   192
  0
VERTEX
  5
2EF
330
2A0
100
AcDbEntity
  8
Q-SPCQ
100
AcDbVertex
100
AcDbPolyFaceMeshVertex
 10
354.0740635871888
 20
-360.2160578727723
 30
512.2174266815185
 70
   192
  0
VERTEX
  5
2F0
330
2A0
100
AcDbEntity
  8
Q-SPCQ
100
AcDbVertex
100
AcDbPolyFaceMeshVertex
 10
354.0740635871888
 20
-359.1088943481445
 30
518.2008187294006
 70
   192
  0
VERTEX
  5
2F1
330
2A0
100
AcDbEntity
  8
Q-SPCQ
100
AcDbVertex
100
AcDbPolyFaceMeshVertex
 10
354.0740635871888
 20
-359.9819151878357
 30
512.7826901435851
 70
   192
  0
VERTEX
  5
2F2
330
2A0
100
AcDbEntity
  8
Q-SPCQ
100
AcDbVertex
100
AcDbPolyFaceMeshVertex
 10
354.0740635871888
 20
-360.5282481193543
 30
511.4637299537658
 70
   192
  0
VERTEX
  5
2F3
330
2A0
100
AcDbEntity
  8
Q-SPCQ
100
AcDbVertex
100
AcDbPolyFaceMeshVertex
 10
354.0740635871888
 20
-359.4549488067627
 30
515.5722001075745
 70
   192
  0
VERTEX
  5
2F4
330
2A0
100
AcDbEntity
  8
Q-SPCQ
100
AcDbVertex
100
AcDbPolyFaceMeshVertex
 10
354.0740635871888
 20
-359.3750844955445
 30
516.178812789917
 70
   192
  0
VERTEX
  5
2F5
330
2A0
100
AcDbEntity
  8
Q-SPCQ
100
AcDbVertex
100
AcDbPolyFaceMeshVertex
 10
343.8070667266846
 20
-359.5535983085633
 30
514.4118421554566
 70
   192
  0
VERTEX
  5
2F6
330
2A0
100
AcDbEntity
  8
Q-SPCQ
100
AcDbVertex
100
AcDbPolyFaceMeshVertex
 10
343.8070667266846
 20
-359.7494439125061
 30
513.7207869529723
 70
   192
  0
VERTEX
  5
2F7
330
2A0
100
AcDbEntity
  8
Q-SPCQ
100
AcDbVertex
100
AcDbPolyFaceMeshVertex
 10
354.0740635871888
 20
-360.1380103111267
 30
512.4058599472046
 70
   192
  0
VERTEX
  5
2F8
330
2A0
100
AcDbEntity
  8
Q-SPCQ
100
AcDbVertex
100
AcDbPolyFaceMeshVertex
 10
354.0740635871888
 20
-360.2941054344177
 30
512.0289934158326
 70
   192
  0
VERTEX
  5
2F9
330
2A0
100
AcDbEntity
  8
Q-SPCQ
100
AcDbVertex
100
AcDbPolyFaceMeshVertex
 10
354.0740635871888
 20
-359.2153558731079
 30
517.3920018196106
 70
   192
  0
VERTEX
  5
2FA
330
2A0
100
AcDbEntity
  8
Q-SPCQ
100
AcDbVertex
100
AcDbPolyFaceMeshVertex
 10
354.0740635871888
 20
-360.4502005577087
 30
511.6521632194519
 70
   192
  0
VERTEX
  5
2FB
330
2A0
100
AcDbEntity
  8
Q-SPCQ
100
AcDbVertex
100
AcDbPolyFaceMeshVertex
 10
354.0740635871888
 20
-360.6062956809998
 30
511.2753330230713
 70
   192
  0
VERTEX
  5
2FC
330
2A0
100
AcDbEntity
  8
Q-SPCQ
100
AcDbVertex
100
AcDbPolyFaceMeshVertex
 10
354.0740635871888
 20
-359.3484509468079
 30
516.3810170173645
 70
   192
  0
VERTEX
  5
2FD
330
2A0
100
AcDbEntity
  8
Q-SPCQ
100
AcDbVertex
100
AcDbPolyFaceMeshVertex
 10
354.0740635871888
 20
-359.401718044281
 30
515.9766085624695
 70
   192
  0
VERTEX
  5
2FE
330
2A0
100
AcDbEntity
  8
Q-SPCQ
100
AcDbVertex
100
AcDbPolyFaceMeshVertex
 10
343.8070667266846
 20
-359.5143928527832
 30
514.5500241279602
 70
   192
  0
VERTEX
  5
2FF
330
2A0
100
AcDbEntity
  8
Q-SPCQ
100
AcDbVertex
100
AcDbPolyFaceMeshVertex
 10
354.0740635871888
 20
-359.1621251106262
 30
517.7964102745057
 70
   192
  0
VERTEX
  5
300
330
2A0
100
AcDbEntity
  8
Q-SPCQ
100
AcDbVertex
100
AcDbPolyFaceMeshVertex
 10
354.0740635871888
 20
-359.2685866355896
 30
516.987629699707
 70
   192
  0
VERTEX
  5
301
330
2A0
100
AcDbEntity
  8
Q-SPCQ
100
AcDbVertex
100
AcDbPolyFaceMeshVertex
 10
354.0740635871888
 20
-359.1887586593628
 30
517.5942060470581
 70
   192
  0
VERTEX
  5
302
330
2A0
100
AcDbEntity
  8
Q-SPCQ
100
AcDbVertex
100
AcDbPolyFaceMeshVertex
 10
354.0740635871888
 20
-359.2952201843262
 30
516.7854254722596
 70
   192
  0
VERTEX
  5
303
330
2A0
100
AcDbEntity
  8
Q-SPCQ
100
AcDbVertex
100
AcDbPolyFaceMeshVertex
 10
354.0740635871888
 20
-359.6146774291992
 30
514.3589747428895
 70
   192
  0
VERTEX
  5
304
330
2A0
100
AcDbEntity
  8
Q-SPCQ
100
AcDbVertex
100
AcDbPolyFaceMeshVertex
 10
343.8070667266846
 20
-360.1803769111634
 30
512.2005309104919
 70
   192
  0
VERTEX
  5
305
330
2A0
100
AcDbEntity
  8
Q-SPCQ
100
AcDbVertex
100
AcDbPolyFaceMeshVertex
 10
343.8070667266846
 20
-360.4545970916748
 30
511.233075428009
 70
   192
  0
VERTEX
  5
306
330
2A0
100
AcDbEntity
  8
Q-SPCQ
100
AcDbVertex
100
AcDbPolyFaceMeshVertex
 10
343.8070667266846
 20
-359.1732436180115
 30
516.814529800415
 70
   192
  0
VERTEX
  5
307
330
2A0
100
AcDbEntity
  8
Q-SPCQ
100
AcDbVertex
100
AcDbPolyFaceMeshVertex
 10
354.0740635871888
 20
-359.6679081916809
 30
513.9545662879944
 70
   192
  0
VERTEX
  5
308
330
2A0
100
AcDbEntity
  8
Q-SPCQ
100
AcDbVertex
100
AcDbPolyFaceMeshVertex
 10
343.8070667266846
 20
-359.2393006324769
 30
516.0993118286133
 70
   192
  0
VERTEX
  5
309
330
2A0
100
AcDbEntity
  8
Q-SPCQ
100
AcDbVertex
100
AcDbPolyFaceMeshVertex
 10
343.8070667266846
 20
-359.1336384773255
 30
517.2436823844909
 70
   192
  0
VERTEX
  5
30A
330
2A0
100
AcDbEntity
  8
Q-SPCQ
100
AcDbVertex
100
AcDbPolyFaceMeshVertex
 10
343.8070667266846
 20
-360.2195460319519
 30
512.0623126029967
 70
   192
  0
VERTEX
  5
30B
330
2A0
100
AcDbEntity
  8
Q-SPCQ
100
AcDbVertex
100
AcDbPolyFaceMeshVertex
 10
343.8070667266846
 20
-359.0015607833862
 30
518.6741183280945
 70
   192
  0
VERTEX
  5
30C
330
2A0
100
AcDbEntity
  8
Q-SPCQ
100
AcDbVertex
100
AcDbPolyFaceMeshVertex
 10
343.8070667266846
 20
-360.1412077903748
 30
512.3387128829956
 70
   192
  0
VERTEX
  5
30D
330
2A0
100
AcDbEntity
  8
Q-SPCQ
100
AcDbVertex
100
AcDbPolyFaceMeshVertex
 10
343.8070667266846
 20
-359.252490234375
 30
515.9562973022461
 70
   192
  0
VERTEX
  5
30E
330
2A0
100
AcDbEntity
  8
Q-SPCQ
100
AcDbVertex
100
AcDbPolyFaceMeshVertex
 10
343.8070667266846
 20
-359.1204488754272
 30
517.3866969108582
 70
   192
  0
VERTEX
  5
30F
330
2A0
100
AcDbEntity
  8
Q-SPCQ
100
AcDbVertex
100
AcDbPolyFaceMeshVertex
 10
343.8070667266846
 20
-359.0543918609619
 30
518.1019148826599
 70
   192
  0
VERTEX
  5
310
330
2A0
100
AcDbEntity
  8
Q-SPCQ
100
AcDbVertex
100
AcDbPolyFaceMeshVertex
 10
343.8070667266846
 20
-359.0808073997497
 30
517.8158494949341
 70
   192
  0
VERTEX
  5
311
330
2A0
100
AcDbEntity
  8
Q-SPCQ
100
AcDbVertex
100
AcDbPolyFaceMeshVertex
 10
343.8070667266846
 20
-359.0279763221741
 30
518.3880166053771
 70
   192
  0
VERTEX
  5
312
330
2A0
100
AcDbEntity
  8
Q-SPCQ
100
AcDbVertex
100
AcDbPolyFaceMeshVertex
 10
343.8070667266846
 20
-359.0412022590637
 30
518.2449657440185
 70
   192
  0
VERTEX
  5
313
330
2A0
100
AcDbEntity
  8
Q-SPCQ
100
AcDbVertex
100
AcDbPolyFaceMeshVertex
 10
354.0740635871888
 20
-359.2419894218445
 30
517.1897975921631
 70
   192
  0
VERTEX
  5
314
330
2A0
100
AcDbEntity
  8
Q-SPCQ
100
AcDbVertex
100
AcDbPolyFaceMeshVertex
 10
343.8070667266846
 20
-359.671105670929
 30
513.9971872329712
 70
   192
  0
VERTEX
  5
315
330
2A0
100
AcDbEntity
  8
Q-SPCQ
100
AcDbVertex
100
AcDbPolyFaceMeshVertex
 10
354.0740635871888
 20
-359.0023964881897
 30
519.0096356391907
 70
   192
  0
VERTEX
  5
316
330
2A0
100
AcDbEntity
  8
Q-SPCQ
100
AcDbVertex
100
AcDbPolyFaceMeshVertex
 10
354.0740635871888
 20
-359.1354915618897
 30
517.9986145019531
 70
   192
  0
VERTEX
  5
317
330
2A0
100
AcDbEntity
  8
Q-SPCQ
100
AcDbVertex
100
AcDbPolyFaceMeshVertex
 10
354.0740635871888
 20
-359.0556272506714
 30
518.6052271842957
 70
   192
  0
VERTEX
  5
318
330
2A0
100
AcDbEntity
  8
Q-SPCQ
100
AcDbVertex
100
AcDbPolyFaceMeshVertex
 10
354.0740635871888
 20
-359.0290300369263
 30
518.8074314117431
 70
   192
  0
VERTEX
  5
319
330
2A0
100
AcDbEntity
  8
Q-SPCQ
100
AcDbVertex
100
AcDbPolyFaceMeshVertex
 10
354.0740635871888
 20
-359.082260799408
 30
518.4030229568482
 70
   192
  0
VERTEX
  5
31A
330
2A0
100
AcDbEntity
  8
Q-SPCQ
100
AcDbVertex
100
AcDbPolyFaceMeshVertex
 10
343.8070667266846
 20
-359.0676177978516
 30
517.9589003562926
 70
   192
  0
VERTEX
  5
31B
330
2A0
100
AcDbEntity
  8
Q-SPCQ
100
AcDbVertex
100
AcDbPolyFaceMeshVertex
 10
343.8070667266846
 20
-358.9487297058105
 30
519.2462854385375
 70
   192
  0
VERTEX
  5
31C
330
2A0
100
AcDbEntity
  8
Q-SPCQ
100
AcDbVertex
100
AcDbPolyFaceMeshVertex
 10
343.8070667266846
 20
-358.9751452445984
 30
518.9601837158203
 70
   192
  0
VERTEX
  5
31D
330
2A0
100
AcDbEntity
  8
Q-SPCQ
100
AcDbVertex
100
AcDbPolyFaceMeshVertex
 10
343.8070667266846
 20
-358.9883711814881
 30
518.8171328544616
 70
   192
  0
VERTEX
  5
31E
330
2A0
100
AcDbEntity
  8
Q-SPCQ
100
AcDbVertex
100
AcDbPolyFaceMeshVertex
 10
354.0740635871888
 20
-358.949165725708
 30
519.4140440940857
 70
   192
  0
VERTEX
  5
31F
330
2A0
100
AcDbEntity
  8
Q-SPCQ
100
AcDbVertex
100
AcDbPolyFaceMeshVertex
 10
354.0740635871888
 20
-358.9757629394532
 30
519.2118398666382
 70
   192
  0
VERTEX
  5
320
330
2A0
100
AcDbEntity
  8
Q-SPCQ
100
AcDbVertex
100
AcDbPolyFaceMeshVertex
 10
343.8070667266846
 20
-358.9223141670227
 30
519.5323508262634
 70
   192
  0
VERTEX
  5
321
330
2A0
100
AcDbEntity
  8
Q-SPCQ
100
AcDbVertex
100
AcDbPolyFaceMeshVertex
 10
343.8070667266846
 20
-358.9355401039124
 30
519.3892999649047
 70
   192
  0
VERTEX
  5
322
330
2A0
100
AcDbEntity
  8
Q-SPCQ
100
AcDbVertex
100
AcDbPolyFaceMeshVertex
 10
354.0740635871888
 20
-358.9225321769715
 30
519.6162483215332
 70
   192
  0
VERTEX
  5
323
330
2A0
100
AcDbEntity
  8
Q-SPCQ
100
AcDbVertex
100
AcDbPolyFaceMeshVertex
 10
343.8070667266846
 20
-358.9091245651245
 30
519.675401687622
 70
   192
  0
VERTEX
  5
324
330
2A0
100
AcDbEntity
  8
Q-SPCQ
100
AcDbFaceRecord
 10
0.0
 20
0.0
 30
0.0
 70
   128
 71
   -11
 72
    16
 73
   -17
  0
VERTEX
  5
325
330
2A0
100
AcDbEntity
  8
Q-SPCQ
100
AcDbFaceRecord
 10
0.0
 20
0.0
 30
0.0
 70
   128
 71
   -64
 72
    82
 73
   -91
  0
VERTEX
  5
326
330
2A0
100
AcDbEntity
  8
Q-SPCQ
100
AcDbFaceRecord
 10
0.0
 20
0.0
 30
0.0
 70
   128
 71
   -12
 72
    15
 73
   -16
  0
VERTEX
  5
327
330
2A0
100
AcDbEntity
  8
Q-SPCQ
100
AcDbFaceRecord
 10
0.0
 20
0.0
 30
0.0
 70
   128
 71
    73
 72
   -66
 73
   -83
  0
VERTEX
  5
328
330
2A0
100
AcDbEntity
  8
Q-SPCQ
100
AcDbFaceRecord
 10
0.0
 20
0.0
 30
0.0
 70
   128
 71
   -10
 72
    17
 73
   -18
  0
VERTEX
  5
329
330
2A0
100
AcDbEntity
  8
Q-SPCQ
100
AcDbFaceRecord
 10
0.0
 20
0.0
 30
0.0
 70
   128
 71
  -108
 72
   -79
 73
   100
  0
VERTEX
  5
32A
330
2A0
100
AcDbEntity
  8
Q-SPCQ
100
AcDbFaceRecord
 10
0.0
 20
0.0
 30
0.0
 70
   128
 71
    20
 72
   -21
 73
    -7
  0
VERTEX
  5
32B
330
2A0
100
AcDbEntity
  8
Q-SPCQ
100
AcDbFaceRecord
 10
0.0
 20
0.0
 30
0.0
 70
   128
 71
    83
 72
   -46
 73
   -73
  0
VERTEX
  5
32C
330
2A0
100
AcDbEntity
  8
Q-SPCQ
100
AcDbFaceRecord
 10
0.0
 20
0.0
 30
0.0
 70
   128
 71
    -8
 72
    19
 73
   -20
  0
VERTEX
  5
32D
330
2A0
100
AcDbEntity
  8
Q-SPCQ
100
AcDbFaceRecord
 10
0.0
 20
0.0
 30
0.0
 70
   128
 71
  -116
 72
    56
 73
  -103
  0
VERTEX
  5
32E
330
2A0
100
AcDbEntity
  8
Q-SPCQ
100
AcDbFaceRecord
 10
0.0
 20
0.0
 30
0.0
 70
   128
 71
    -9
 72
    18
 73
   -19
  0
VERTEX
  5
32F
330
2A0
100
AcDbEntity
  8
Q-SPCQ
100
AcDbFaceRecord
 10
0.0
 20
0.0
 30
0.0
 70
   128
 71
   -45
 72
    67
 73
   -61
  0
VERTEX
  5
330
330
2A0
100
AcDbEntity
  8
Q-SPCQ
100
AcDbFaceRecord
 10
0.0
 20
0.0
 30
0.0
 70
   128
 71
    96
 72
   -98
 73
  -102
  0
VERTEX
  5
331
330
2A0
100
AcDbEntity
  8
Q-SPCQ
100
AcDbFaceRecord
 10
0.0
 20
0.0
 30
0.0
 70
   128
 71
    -6
 72
    21
 73
   -22
  0
VERTEX
  5
332
330
2A0
100
AcDbEntity
  8
Q-SPCQ
100
AcDbFaceRecord
 10
0.0
 20
0.0
 30
0.0
 70
   128
 71
    14
 72
   -15
 73
    13
  0
VERTEX
  5
333
330
2A0
100
AcDbEntity
  8
Q-SPCQ
100
AcDbFaceRecord
 10
0.0
 20
0.0
 30
0.0
 70
   128
 71
   -42
 72
    74
 73
   -68
  0
VERTEX
  5
334
330
2A0
100
AcDbEntity
  8
Q-SPCQ
100
AcDbFaceRecord
 10
0.0
 20
0.0
 30
0.0
 70
   128
 71
   -84
 72
   104
 73
   -57
  0
VERTEX
  5
335
330
2A0
100
AcDbEntity
  8
Q-SPCQ
100
AcDbFaceRecord
 10
0.0
 20
0.0
 30
0.0
 70
   128
 71
   -13
 72
   -15
 73
    12
  0
VERTEX
  5
336
330
2A0
100
AcDbEntity
  8
Q-SPCQ
100
AcDbFaceRecord
 10
0.0
 20
0.0
 30
0.0
 70
   128
 71
    11
 72
   -12
 73
   -16
  0
VERTEX
  5
337
330
2A0
100
AcDbEntity
  8
Q-SPCQ
100
AcDbFaceRecord
 10
0.0
 20
0.0
 30
0.0
 70
   128
 71
    -2
 72
    49
 73
   -44
  0
VERTEX
  5
338
330
2A0
100
AcDbEntity
  8
Q-SPCQ
100
AcDbFaceRecord
 10
0.0
 20
0.0
 30
0.0
 70
   128
 71
   -41
 72
    66
 73
   -60
  0
VERTEX
  5
339
330
2A0
100
AcDbEntity
  8
Q-SPCQ
100
AcDbFaceRecord
 10
0.0
 20
0.0
 30
0.0
 70
   128
 71
   -17
 72
    10
 73
   -11
  0
VERTEX
  5
33A
330
2A0
100
AcDbEntity
  8
Q-SPCQ
100
AcDbFaceRecord
 10
0.0
 20
0.0
 30
0.0
 70
   128
 71
   -10
 72
   -18
 73
     9
  0
VERTEX
  5
33B
330
2A0
100
AcDbEntity
  8
Q-SPCQ
100
AcDbFaceRecord
 10
0.0
 20
0.0
 30
0.0
 70
   128
 71
     8
 72
    -9
 73
   -19
  0
VERTEX
  5
33C
330
2A0
100
AcDbEntity
  8
Q-SPCQ
100
AcDbFaceRecord
 10
0.0
 20
0.0
 30
0.0
 70
   128
 71
   -37
 72
    53
 73
   -48
  0
VERTEX
  5
33D
330
2A0
100
AcDbEntity
  8
Q-SPCQ
100
AcDbFaceRecord
 10
0.0
 20
0.0
 30
0.0
 70
   128
 71
   -53
 72
    58
 73
   -49
  0
VERTEX
  5
33E
330
2A0
100
AcDbEntity
  8
Q-SPCQ
100
AcDbFaceRecord
 10
0.0
 20
0.0
 30
0.0
 70
   128
 71
     7
 72
    -8
 73
   -20
  0
VERTEX
  5
33F
330
2A0
100
AcDbEntity
  8
Q-SPCQ
100
AcDbFaceRecord
 10
0.0
 20
0.0
 30
0.0
 70
   128
 71
   -32
 72
    52
 73
   -47
  0
VERTEX
  5
340
330
2A0
100
AcDbEntity
  8
Q-SPCQ
100
AcDbFaceRecord
 10
0.0
 20
0.0
 30
0.0
 70
   128
 71
   -21
 72
     6
 73
    -7
  0
VERTEX
  5
341
330
2A0
100
AcDbEntity
  8
Q-SPCQ
100
AcDbFaceRecord
 10
0.0
 20
0.0
 30
0.0
 70
   128
 71
   -99
 72
    40
 73
   -85
  0
VERTEX
  5
342
330
2A0
100
AcDbEntity
  8
Q-SPCQ
100
AcDbFaceRecord
 10
0.0
 20
0.0
 30
0.0
 70
   128
 71
   -22
 72
     5
 73
    -6
  0
VERTEX
  5
343
330
2A0
100
AcDbEntity
  8
Q-SPCQ
100
AcDbFaceRecord
 10
0.0
 20
0.0
 30
0.0
 70
   128
 71
   -50
 72
   -67
 73
    45
  0
VERTEX
  5
344
330
2A0
100
AcDbEntity
  8
Q-SPCQ
100
AcDbFaceRecord
 10
0.0
 20
0.0
 30
0.0
 70
   128
 71
    24
 72
    25
 73
   -26
  0
VERTEX
  5
345
330
2A0
100
AcDbEntity
  8
Q-SPCQ
100
AcDbFaceRecord
 10
0.0
 20
0.0
 30
0.0
 70
   128
 71
   -60
 72
    93
 73
   -41
  0
VERTEX
  5
346
330
2A0
100
AcDbEntity
  8
Q-SPCQ
100
AcDbFaceRecord
 10
0.0
 20
0.0
 30
0.0
 70
   128
 71
   -26
 72
    -3
 73
   -24
  0
VERTEX
  5
347
330
2A0
100
AcDbEntity
  8
Q-SPCQ
100
AcDbFaceRecord
 10
0.0
 20
0.0
 30
0.0
 70
   128
 71
    23
 72
   -24
 73
    -4
  0
VERTEX
  5
348
330
2A0
100
AcDbEntity
  8
Q-SPCQ
100
AcDbFaceRecord
 10
0.0
 20
0.0
 30
0.0
 70
   128
 71
   103
 72
   -62
 73
   -78
  0
VERTEX
  5
349
330
2A0
100
AcDbEntity
  8
Q-SPCQ
100
AcDbFaceRecord
 10
0.0
 20
0.0
 30
0.0
 70
   128
 71
   -53
 72
    37
 73
   -58
  0
VERTEX
  5
34A
330
2A0
100
AcDbEntity
  8
Q-SPCQ
100
AcDbFaceRecord
 10
0.0
 20
0.0
 30
0.0
 70
   128
 71
   -30
 72
    27
 73
    28
 74
    29
  0
VERTEX
  5
34B
330
2A0
100
AcDbEntity
  8
Q-SPCQ
100
AcDbFaceRecord
 10
0.0
 20
0.0
 30
0.0
 70
   128
 71
    81
 72
   -43
 73
   -72
  0
VERTEX
  5
34C
330
2A0
100
AcDbEntity
  8
Q-SPCQ
100
AcDbFaceRecord
 10
0.0
 20
0.0
 30
0.0
 70
   128
 71
    47
 72
   -36
 73
   -31
  0
VERTEX
  5
34D
330
2A0
100
AcDbEntity
  8
Q-SPCQ
100
AcDbFaceRecord
 10
0.0
 20
0.0
 30
0.0
 70
   128
 71
   -27
 72
    30
 73
   -31
 74
    26
  0
VERTEX
  5
34E
330
2A0
100
AcDbEntity
  8
Q-SPCQ
100
AcDbFaceRecord
 10
0.0
 20
0.0
 30
0.0
 70
   128
 71
   -61
 72
    94
 73
   -45
  0
VERTEX
  5
34F
330
2A0
100
AcDbEntity
  8
Q-SPCQ
100
AcDbFaceRecord
 10
0.0
 20
0.0
 30
0.0
 70
   128
 71
   -31
 72
    -3
 73
   -26
  0
VERTEX
  5
350
330
2A0
100
AcDbEntity
  8
Q-SPCQ
100
AcDbFaceRecord
 10
0.0
 20
0.0
 30
0.0
 70
   128
 71
    -4
 72
   -24
 73
     3
  0
VERTEX
  5
351
330
2A0
100
AcDbEntity
  8
Q-SPCQ
100
AcDbFaceRecord
 10
0.0
 20
0.0
 30
0.0
 70
   128
 71
     4
 72
    -5
 73
   -23
  0
VERTEX
  5
352
330
2A0
100
AcDbEntity
  8
Q-SPCQ
100
AcDbFaceRecord
 10
0.0
 20
0.0
 30
0.0
 70
   128
 71
   -74
 72
   -52
 73
    32
  0
VERTEX
  5
353
330
2A0
100
AcDbEntity
  8
Q-SPCQ
100
AcDbFaceRecord
 10
0.0
 20
0.0
 30
0.0
 70
   128
 71
   -32
 72
   -47
 73
    31
  0
VERTEX
  5
354
330
2A0
100
AcDbEntity
  8
Q-SPCQ
100
AcDbFaceRecord
 10
0.0
 20
0.0
 30
0.0
 70
   128
 71
    36
 72
    -3
 73
   -31
  0
VERTEX
  5
355
330
2A0
100
AcDbEntity
  8
Q-SPCQ
100
AcDbFaceRecord
 10
0.0
 20
0.0
 30
0.0
 70
   128
 71
   -33
 72
    46
 73
   -51
  0
VERTEX
  5
356
330
2A0
100
AcDbEntity
  8
Q-SPCQ
100
AcDbFaceRecord
 10
0.0
 20
0.0
 30
0.0
 70
   128
 71
   -38
 72
    50
 73
   -55
  0
VERTEX
  5
357
330
2A0
100
AcDbEntity
  8
Q-SPCQ
100
AcDbFaceRecord
 10
0.0
 20
0.0
 30
0.0
 70
   128
 71
   -80
 72
  -114
 73
   121
  0
VERTEX
  5
358
330
2A0
100
AcDbEntity
  8
Q-SPCQ
100
AcDbFaceRecord
 10
0.0
 20
0.0
 30
0.0
 70
   128
 71
    -2
 72
   -44
 73
    69
  0
VERTEX
  5
359
330
2A0
100
AcDbEntity
  8
Q-SPCQ
100
AcDbFaceRecord
 10
0.0
 20
0.0
 30
0.0
 70
   128
 71
   -35
 72
   -70
 73
    98
  0
VERTEX
  5
35A
330
2A0
100
AcDbEntity
  8
Q-SPCQ
100
AcDbFaceRecord
 10
0.0
 20
0.0
 30
0.0
 70
   128
 71
    72
 72
   -37
 73
   -48
  0
VERTEX
  5
35B
330
2A0
100
AcDbEntity
  8
Q-SPCQ
100
AcDbFaceRecord
 10
0.0
 20
0.0
 30
0.0
 70
   128
 71
   110
 72
   -54
 73
   -89
  0
VERTEX
  5
35C
330
2A0
100
AcDbEntity
  8
Q-SPCQ
100
AcDbFaceRecord
 10
0.0
 20
0.0
 30
0.0
 70
   128
 71
   -39
 72
    76
 73
   -59
  0
VERTEX
  5
35D
330
2A0
100
AcDbEntity
  8
Q-SPCQ
100
AcDbFaceRecord
 10
0.0
 20
0.0
 30
0.0
 70
   128
 71
    55
 72
   -33
 73
   -51
  0
VERTEX
  5
35E
330
2A0
100
AcDbEntity
  8
Q-SPCQ
100
AcDbFaceRecord
 10
0.0
 20
0.0
 30
0.0
 70
   128
 71
   -59
 72
    88
 73
   -39
  0
VERTEX
  5
35F
330
2A0
100
AcDbEntity
  8
Q-SPCQ
100
AcDbFaceRecord
 10
0.0
 20
0.0
 30
0.0
 70
   128
 71
   -49
 72
     2
 73
   -53
  0
VERTEX
  5
360
330
2A0
100
AcDbEntity
  8
Q-SPCQ
100
AcDbFaceRecord
 10
0.0
 20
0.0
 30
0.0
 70
   128
 71
   -38
 72
   -55
 73
    51
  0
VERTEX
  5
361
330
2A0
100
AcDbEntity
  8
Q-SPCQ
100
AcDbFaceRecord
 10
0.0
 20
0.0
 30
0.0
 70
   128
 71
   -23
 72
    -5
 73
    22
  0
VERTEX
  5
362
330
2A0
100
AcDbEntity
  8
Q-SPCQ
100
AcDbFaceRecord
 10
0.0
 20
0.0
 30
0.0
 70
   128
 71
    91
 72
   -42
 73
   -68
  0
VERTEX
  5
363
330
2A0
100
AcDbEntity
  8
Q-SPCQ
100
AcDbFaceRecord
 10
0.0
 20
0.0
 30
0.0
 70
   128
 71
   -67
 72
   -50
 73
    38
  0
VERTEX
  5
364
330
2A0
100
AcDbEntity
  8
Q-SPCQ
100
AcDbFaceRecord
 10
0.0
 20
0.0
 30
0.0
 70
   128
 71
   -86
 72
   -69
 73
    44
  0
VERTEX
  5
365
330
2A0
100
AcDbEntity
  8
Q-SPCQ
100
AcDbFaceRecord
 10
0.0
 20
0.0
 30
0.0
 70
   128
 71
   -35
 72
    75
 73
   -70
  0
VERTEX
  5
366
330
2A0
100
AcDbEntity
  8
Q-SPCQ
100
AcDbFaceRecord
 10
0.0
 20
0.0
 30
0.0
 70
   128
 71
   -64
 72
    90
 73
   -82
  0
VERTEX
  5
367
330
2A0
100
AcDbEntity
  8
Q-SPCQ
100
AcDbFaceRecord
 10
0.0
 20
0.0
 30
0.0
 70
   128
 71
   -43
 72
    77
 73
   -72
  0
VERTEX
  5
368
330
2A0
100
AcDbEntity
  8
Q-SPCQ
100
AcDbFaceRecord
 10
0.0
 20
0.0
 30
0.0
 70
   128
 71
   -46
 72
    33
 73
   -73
  0
VERTEX
  5
369
330
2A0
100
AcDbEntity
  8
Q-SPCQ
100
AcDbFaceRecord
 10
0.0
 20
0.0
 30
0.0
 70
   128
 71
   -52
 72
   -74
 73
    42
  0
VERTEX
  5
36A
330
2A0
100
AcDbEntity
  8
Q-SPCQ
100
AcDbFaceRecord
 10
0.0
 20
0.0
 30
0.0
 70
   128
 71
   -92
 72
   -75
 73
    35
  0
VERTEX
  5
36B
330
2A0
100
AcDbEntity
  8
Q-SPCQ
100
AcDbFaceRecord
 10
0.0
 20
0.0
 30
0.0
 70
   128
 71
   -39
 72
    71
 73
   -76
  0
VERTEX
  5
36C
330
2A0
100
AcDbEntity
  8
Q-SPCQ
100
AcDbFaceRecord
 10
0.0
 20
0.0
 30
0.0
 70
   128
 71
   -43
 72
    65
 73
   -77
  0
VERTEX
  5
36D
330
2A0
100
AcDbEntity
  8
Q-SPCQ
100
AcDbFaceRecord
 10
0.0
 20
0.0
 30
0.0
 70
   128
 71
   -62
 72
    86
 73
   -78
  0
VERTEX
  5
36E
330
2A0
100
AcDbEntity
  8
Q-SPCQ
100
AcDbFaceRecord
 10
0.0
 20
0.0
 30
0.0
 70
   128
 71
   -87
 72
   108
 73
   -65
  0
VERTEX
  5
36F
330
2A0
100
AcDbEntity
  8
Q-SPCQ
100
AcDbFaceRecord
 10
0.0
 20
0.0
 30
0.0
 70
   128
 71
  -123
 72
   127
 73
  -117
  0
VERTEX
  5
370
330
2A0
100
AcDbEntity
  8
Q-SPCQ
100
AcDbFaceRecord
 10
0.0
 20
0.0
 30
0.0
 70
   128
 71
   -72
 72
    48
 73
   -81
  0
VERTEX
  5
371
330
2A0
100
AcDbEntity
  8
Q-SPCQ
100
AcDbFaceRecord
 10
0.0
 20
0.0
 30
0.0
 70
   128
 71
   -90
 72
    64
 73
   -71
  0
VERTEX
  5
372
330
2A0
100
AcDbEntity
  8
Q-SPCQ
100
AcDbFaceRecord
 10
0.0
 20
0.0
 30
0.0
 70
   128
 71
   -66
 72
    41
 73
   -83
  0
VERTEX
  5
373
330
2A0
100
AcDbEntity
  8
Q-SPCQ
100
AcDbFaceRecord
 10
0.0
 20
0.0
 30
0.0
 70
   128
 71
   -57
 72
    92
 73
   -84
  0
VERTEX
  5
374
330
2A0
100
AcDbEntity
  8
Q-SPCQ
100
AcDbFaceRecord
 10
0.0
 20
0.0
 30
0.0
 70
   128
 71
   -40
 72
    99
 73
   -56
  0
VERTEX
  5
375
330
2A0
100
AcDbEntity
  8
Q-SPCQ
100
AcDbFaceRecord
 10
0.0
 20
0.0
 30
0.0
 70
   128
 71
   -69
 72
   -86
 73
    62
  0
VERTEX
  5
376
330
2A0
100
AcDbEntity
  8
Q-SPCQ
100
AcDbFaceRecord
 10
0.0
 20
0.0
 30
0.0
 70
   128
 71
   -65
 72
    43
 73
   -87
  0
VERTEX
  5
377
330
2A0
100
AcDbEntity
  8
Q-SPCQ
100
AcDbFaceRecord
 10
0.0
 20
0.0
 30
0.0
 70
   128
 71
   -79
 72
   106
 73
  -100
  0
VERTEX
  5
378
330
2A0
100
AcDbEntity
  8
Q-SPCQ
100
AcDbFaceRecord
 10
0.0
 20
0.0
 30
0.0
 70
   128
 71
   -54
 72
    97
 73
   -89
  0
VERTEX
  5
379
330
2A0
100
AcDbEntity
  8
Q-SPCQ
100
AcDbFaceRecord
 10
0.0
 20
0.0
 30
0.0
 70
   128
 71
   -71
 72
    39
 73
   -90
  0
VERTEX
  5
37A
330
2A0
100
AcDbEntity
  8
Q-SPCQ
100
AcDbFaceRecord
 10
0.0
 20
0.0
 30
0.0
 70
   128
 71
   -64
 72
   -91
 73
   101
  0
VERTEX
  5
37B
330
2A0
100
AcDbEntity
  8
Q-SPCQ
100
AcDbFaceRecord
 10
0.0
 20
0.0
 30
0.0
 70
   128
 71
   -75
 72
   -92
 73
    57
  0
VERTEX
  5
37C
330
2A0
100
AcDbEntity
  8
Q-SPCQ
100
AcDbFaceRecord
 10
0.0
 20
0.0
 30
0.0
 70
   128
 71
  -104
 72
   -93
 73
   109
  0
VERTEX
  5
37D
330
2A0
100
AcDbEntity
  8
Q-SPCQ
100
AcDbFaceRecord
 10
0.0
 20
0.0
 30
0.0
 70
   128
 71
   -61
 72
    85
 73
   -94
  0
VERTEX
  5
37E
330
2A0
100
AcDbEntity
  8
Q-SPCQ
100
AcDbFaceRecord
 10
0.0
 20
0.0
 30
0.0
 70
   128
 71
  -118
 72
   122
 73
  -111
  0
VERTEX
  5
37F
330
2A0
100
AcDbEntity
  8
Q-SPCQ
100
AcDbFaceRecord
 10
0.0
 20
0.0
 30
0.0
 70
   128
 71
  -115
 72
    63
 73
  -105
  0
VERTEX
  5
380
330
2A0
100
AcDbEntity
  8
Q-SPCQ
100
AcDbFaceRecord
 10
0.0
 20
0.0
 30
0.0
 70
   128
 71
  -112
 72
   -97
 73
    54
  0
VERTEX
  5
381
330
2A0
100
AcDbEntity
  8
Q-SPCQ
100
AcDbFaceRecord
 10
0.0
 20
0.0
 30
0.0
 70
   128
 71
   -96
 72
   102
 73
   -63
  0
VERTEX
  5
382
330
2A0
100
AcDbEntity
  8
Q-SPCQ
100
AcDbFaceRecord
 10
0.0
 20
0.0
 30
0.0
 70
   128
 71
   -85
 72
    61
 73
   -99
  0
VERTEX
  5
383
330
2A0
100
AcDbEntity
  8
Q-SPCQ
100
AcDbFaceRecord
 10
0.0
 20
0.0
 30
0.0
 70
   128
 71
  -106
 72
    79
 73
   -88
  0
VERTEX
  5
384
330
2A0
100
AcDbEntity
  8
Q-SPCQ
100
AcDbFaceRecord
 10
0.0
 20
0.0
 30
0.0
 70
   128
 71
   -91
 72
    68
 73
  -101
  0
VERTEX
  5
385
330
2A0
100
AcDbEntity
  8
Q-SPCQ
100
AcDbFaceRecord
 10
0.0
 20
0.0
 30
0.0
 70
   128
 71
   -98
 72
    70
 73
  -102
  0
VERTEX
  5
386
330
2A0
100
AcDbEntity
  8
Q-SPCQ
100
AcDbFaceRecord
 10
0.0
 20
0.0
 30
0.0
 70
   128
 71
   -56
 72
   116
 73
   -40
  0
VERTEX
  5
387
330
2A0
100
AcDbEntity
  8
Q-SPCQ
100
AcDbFaceRecord
 10
0.0
 20
0.0
 30
0.0
 70
   128
 71
   -93
 72
  -104
 73
    84
  0
VERTEX
  5
388
330
2A0
100
AcDbEntity
  8
Q-SPCQ
100
AcDbFaceRecord
 10
0.0
 20
0.0
 30
0.0
 70
   128
 71
   -63
 72
   115
 73
   -96
  0
VERTEX
  5
389
330
2A0
100
AcDbEntity
  8
Q-SPCQ
100
AcDbFaceRecord
 10
0.0
 20
0.0
 30
0.0
 70
   128
 71
   -88
 72
    59
 73
  -106
  0
VERTEX
  5
38A
330
2A0
100
AcDbEntity
  8
Q-SPCQ
100
AcDbFaceRecord
 10
0.0
 20
0.0
 30
0.0
 70
   128
 71
   113
 72
  -107
 73
  -119
  0
VERTEX
  5
38B
330
2A0
100
AcDbEntity
  8
Q-SPCQ
100
AcDbFaceRecord
 10
0.0
 20
0.0
 30
0.0
 70
   128
 71
   -79
 72
  -108
 73
    87
  0
VERTEX
  5
38C
330
2A0
100
AcDbEntity
  8
Q-SPCQ
100
AcDbFaceRecord
 10
0.0
 20
0.0
 30
0.0
 70
   128
 71
   -93
 72
    60
 73
  -109
  0
VERTEX
  5
38D
330
2A0
100
AcDbEntity
  8
Q-SPCQ
100
AcDbFaceRecord
 10
0.0
 20
0.0
 30
0.0
 70
   128
 71
   -89
 72
   105
 73
  -110
  0
VERTEX
  5
38E
330
2A0
100
AcDbEntity
  8
Q-SPCQ
100
AcDbFaceRecord
 10
0.0
 20
0.0
 30
0.0
 70
   128
 71
  -112
 72
   118
 73
    95
 74
   -97
  0
VERTEX
  5
38F
330
2A0
100
AcDbEntity
  8
Q-SPCQ
100
AcDbFaceRecord
 10
0.0
 20
0.0
 30
0.0
 70
   128
 71
   114
 72
  -113
 73
  -121
  0
VERTEX
  5
390
330
2A0
100
AcDbEntity
  8
Q-SPCQ
100
AcDbFaceRecord
 10
0.0
 20
0.0
 30
0.0
 70
   128
 71
   -80
 72
   111
 73
  -114
  0
VERTEX
  5
391
330
2A0
100
AcDbEntity
  8
Q-SPCQ
100
AcDbFaceRecord
 10
0.0
 20
0.0
 30
0.0
 70
   128
 71
  -105
 72
    89
 73
  -115
  0
VERTEX
  5
392
330
2A0
100
AcDbEntity
  8
Q-SPCQ
100
AcDbFaceRecord
 10
0.0
 20
0.0
 30
0.0
 70
   128
 71
  -103
 72
    78
 73
  -116
  0
VERTEX
  5
393
330
2A0
100
AcDbEntity
  8
Q-SPCQ
100
AcDbFaceRecord
 10
0.0
 20
0.0
 30
0.0
 70
   128
 71
  -128
 72
   130
 73
  -126
  0
VERTEX
  5
394
330
2A0
100
AcDbEntity
  8
Q-SPCQ
100
AcDbFaceRecord
 10
0.0
 20
0.0
 30
0.0
 70
   128
 71
  -111
 72
    80
 73
  -118
  0
VERTEX
  5
395
330
2A0
100
AcDbEntity
  8
Q-SPCQ
100
AcDbFaceRecord
 10
0.0
 20
0.0
 30
0.0
 70
   128
 71
  -107
 72
   120
 73
  -119
  0
VERTEX
  5
396
330
2A0
100
AcDbEntity
  8
Q-SPCQ
100
AcDbFaceRecord
 10
0.0
 20
0.0
 30
0.0
 70
   128
 71
  -124
 72
  -120
 73
   125
  0
VERTEX
  5
397
330
2A0
100
AcDbEntity
  8
Q-SPCQ
100
AcDbFaceRecord
 10
0.0
 20
0.0
 30
0.0
 70
   128
 71
  -113
 72
   119
 73
  -121
  0
VERTEX
  5
398
330
2A0
100
AcDbEntity
  8
Q-SPCQ
100
AcDbFaceRecord
 10
0.0
 20
0.0
 30
0.0
 70
   128
 71
  -118
 72
   112
 73
  -122
  0
VERTEX
  5
399
330
2A0
100
AcDbEntity
  8
Q-SPCQ
100
AcDbFaceRecord
 10
0.0
 20
0.0
 30
0.0
 70
   128
 71
  -117
 72
   124
 73
  -123
  0
VERTEX
  5
39A
330
2A0
100
AcDbEntity
  8
Q-SPCQ
100
AcDbFaceRecord
 10
0.0
 20
0.0
 30
0.0
 70
   128
 71
  -120
 72
  -124
 73
   117
  0
VERTEX
  5
39B
330
2A0
100
AcDbEntity
  8
Q-SPCQ
100
AcDbFaceRecord
 10
0.0
 20
0.0
 30
0.0
 70
   128
 71
  -120
 72
   107
 73
  -125
  0
VERTEX
  5
39C
330
2A0
100
AcDbEntity
  8
Q-SPCQ
100
AcDbFaceRecord
 10
0.0
 20
0.0
 30
0.0
 70
   128
 71
  -131
 72
     1
 73
  -130
  0
VERTEX
  5
39D
330
2A0
100
AcDbEntity
  8
Q-SPCQ
100
AcDbFaceRecord
 10
0.0
 20
0.0
 30
0.0
 70
   128
 71
  -123
 72
   126
 73
  -127
  0
VERTEX
  5
39E
330
2A0
100
AcDbEntity
  8
Q-SPCQ
100
AcDbFaceRecord
 10
0.0
 20
0.0
 30
0.0
 70
   128
 71
  -126
 72
   129
 73
  -128
  0
VERTEX
  5
39F
330
2A0
100
AcDbEntity
  8
Q-SPCQ
100
AcDbFaceRecord
 10
0.0
 20
0.0
 30
0.0
 70
   128
 71
  -126
 72
   123
 73
  -129
  0
VERTEX
  5
3A0
330
2A0
100
AcDbEntity
  8
Q-SPCQ
100
AcDbFaceRecord
 10
0.0
 20
0.0
 30
0.0
 70
   128
 71
    -1
 72
   131
 73
    34
  0
VERTEX
  5
3A1
330
2A0
100
AcDbEntity
  8
Q-SPCQ
100
AcDbFaceRecord
 10
0.0
 20
0.0
 30
0.0
 70
   128
 71
  -130
 72
   128
 73
  -131
  0
SEQEND
  5
3A2
330
2A0
100
AcDbEntity
  8
Q-SPCQ
  0
POLYLINE
  5
3A3
330
12F
100
AcDbEntity
  8
Q-SPCQ
100
AcDbPolyFaceMesh
 66
     1
 10
0.0
 20
0.0
 30
0.0
 70
    64
 71
     7
 72
     4
1001
REVIT
1002
{
1070
     2
1000
-2001350
1002
}
  0
VERTEX
  5
3A4
330
3A3
100
AcDbEntity
  8
Q-SPCQ
100
AcDbVertex
100
AcDbPolyFaceMeshVertex
 10
280.3704046726227
 20
-316.8959186553955
 30
528.8184482574463
 70
   192
  0
VERTEX
  5
3A5
330
3A3
100
AcDbEntity
  8
Q-SPCQ
100
AcDbVertex
100
AcDbPolyFaceMeshVertex
 10
280.3704046726227
 20
-316.8959186553955
 30
510.8184568405151
 70
   192
  0
VERTEX
  5
3A6
330
3A3
100
AcDbEntity
  8
Q-SPCQ
100
AcDbVertex
100
AcDbPolyFaceMeshVertex
 10
280.3704046726227
 20
-360.5721044540405
 30
510.8184568405151
 70
   192
  0
VERTEX
  5
3A7
330
3A3
100
AcDbEntity
  8
Q-SPCQ
100
AcDbVertex
100
AcDbPolyFaceMeshVertex
 10
280.3704046726227
 20
-359.3185472488404
 30
515.2410793304443
 70
   192
  0
VERTEX
  5
3A8
330
3A3
100
AcDbEntity
  8
Q-SPCQ
100
AcDbVertex
100
AcDbPolyFaceMeshVertex
 10
280.3704046726227
 20
-358.8958986282349
 30
519.8184525489807
 70
   192
  0
VERTEX
  5
3A9
330
3A3
100
AcDbEntity
  8
Q-SPCQ
100
AcDbVertex
100
AcDbPolyFaceMeshVertex
 10
280.3704046726227
 20
-359.3185472488404
 30
524.3958257675171
 70
   192
  0
VERTEX
  5
3AA
330
3A3
100
AcDbEntity
  8
Q-SPCQ
100
AcDbVertex
100
AcDbPolyFaceMeshVertex
 10
280.3704046726227
 20
-360.5721044540405
 30
528.8184482574463
 70
   192
  0
VERTEX
  5
3AB
330
3A3
100
AcDbEntity
  8
Q-SPCQ
100
AcDbFaceRecord
 10
0.0
 20
0.0
 30
0.0
 70
   128
 71
     3
 72
    -4
 73
     2
  0
VERTEX
  5
3AC
330
3A3
100
AcDbEntity
  8
Q-SPCQ
100
AcDbFaceRecord
 10
0.0
 20
0.0
 30
0.0
 70
   128
 71
    -6
 72
    -1
 73
     5
  0
VERTEX
  5
3AD
330
3A3
100
AcDbEntity
  8
Q-SPCQ
100
AcDbFaceRecord
 10
0.0
 20
0.0
 30
0.0
 70
   128
 71
    -1
 72
     6
 73
     7
  0
VERTEX
  5
3AE
330
3A3
100
AcDbEntity
  8
Q-SPCQ
100
AcDbFaceRecord
 10
0.0
 20
0.0
 30
0.0
 70
   128
 71
    -2
 72
     4
 73
    -5
 74
     1
  0
SEQEND
  5
3AF
330
3A3
100
AcDbEntity
  8
Q-SPCQ
  0
POLYLINE
  5
3B0
330
12F
100
AcDbEntity
  8
Q-SPCQ
100
AcDbPolyFaceMesh
 66
     1
 10
0.0
 20
0.0
 30
0.0
 70
    64
 71
     7
 72
     4
1001
REVIT
1002
{
1070
     2
1000
-2001350
1002
}
  0
VERTEX
  5
3B1
330
3B0
100
AcDbEntity
  8
Q-SPCQ
100
AcDbVertex
100
AcDbPolyFaceMeshVertex
 10
343.8070667266846
 20
-316.8959186553955
 30
510.8184568405151
 70
   192
  0
VERTEX
  5
3B2
330
3B0
100
AcDbEntity
  8
Q-SPCQ
100
AcDbVertex
100
AcDbPolyFaceMeshVertex
 10
343.8070667266846
 20
-316.8959186553955
 30
528.8184482574463
 70
   192
  0
VERTEX
  5
3B3
330
3B0
100
AcDbEntity
  8
Q-SPCQ
100
AcDbVertex
100
AcDbPolyFaceMeshVertex
 10
343.8070667266846
 20
-360.5721044540405
 30
528.8184482574463
 70
   192
  0
VERTEX
  5
3B4
330
3B0
100
AcDbEntity
  8
Q-SPCQ
100
AcDbVertex
100
AcDbPolyFaceMeshVertex
 10
343.8070667266846
 20
-359.3185472488404
 30
524.3958257675171
 70
   192
  0
VERTEX
  5
3B5
330
3B0
100
AcDbEntity
  8
Q-SPCQ
100
AcDbVertex
100
AcDbPolyFaceMeshVertex
 10
343.8070667266846
 20
-358.8958986282349
 30
519.8184525489807
 70
   192
  0
VERTEX
  5
3B6
330
3B0
100
AcDbEntity
  8
Q-SPCQ
100
AcDbVertex
100
AcDbPolyFaceMeshVertex
 10
343.8070667266846
 20
-359.3185472488404
 30
515.2410793304443
 70
   192
  0
VERTEX
  5
3B7
330
3B0
100
AcDbEntity
  8
Q-SPCQ
100
AcDbVertex
100
AcDbPolyFaceMeshVertex
 10
343.8070667266846
 20
-360.5721044540405
 30
510.8184568405151
 70
   192
  0
VERTEX
  5
3B8
330
3B0
100
AcDbEntity
  8
Q-SPCQ
100
AcDbFaceRecord
 10
0.0
 20
0.0
 30
0.0
 70
   128
 71
    -5
 72
     1
 73
    -2
 74
     4
  0
VERTEX
  5
3B9
330
3B0
100
AcDbEntity
  8
Q-SPCQ
100
AcDbFaceRecord
 10
0.0
 20
0.0
 30
0.0
 70
   128
 71
    -1
 72
     5
 73
    -6
  0
VERTEX
  5
3BA
330
3B0
100
AcDbEntity
  8
Q-SPCQ
100
AcDbFaceRecord
 10
0.0
 20
0.0
 30
0.0
 70
   128
 71
     3
 72
    -4
 73
     2
  0
VERTEX
  5
3BB
330
3B0
100
AcDbEntity
  8
Q-SPCQ
100
AcDbFaceRecord
 10
0.0
 20
0.0
 30
0.0
 70
   128
 71
     6
 72
     7
 73
    -1
  0
SEQEND
  5
3BC
330
3B0
100
AcDbEntity
  8
Q-SPCQ
  0
POLYLINE
  5
3BD
330
12F
100
AcDbEntity
  8
Q-SPCQ
100
AcDbPolyFaceMesh
 66
     1
 10
0.0
 20
0.0
 30
0.0
 70
    64
 71
     4
 72
     1
1001
REVIT
1002
{
1070
     2
1000
-2001350
1002
}
  0
VERTEX
  5
3BE
330
3BD
100
AcDbEntity
  8
Q-SPCQ
100
AcDbVertex
100
AcDbPolyFaceMeshVertex
 10
343.8070667266846
 20
-316.8959186553955
 30
510.8184568405151
 70
   192
  0
VERTEX
  5
3BF
330
3BD
100
AcDbEntity
  8
Q-SPCQ
100
AcDbVertex
100
AcDbPolyFaceMeshVertex
 10
343.8070667266846
 20
-360.5721044540405
 30
510.8184568405151
 70
   192
  0
VERTEX
  5
3C0
330
3BD
100
AcDbEntity
  8
Q-SPCQ
100
AcDbVertex
100
AcDbPolyFaceMeshVertex
 10
280.3704046726227
 20
-360.5721044540405
 30
510.8184568405151
 70
   192
  0
VERTEX
  5
3C1
330
3BD
100
AcDbEntity
  8
Q-SPCQ
100
AcDbVertex
100
AcDbPolyFaceMeshVertex
 10
280.3704046726227
 20
-316.8959186553955
 30
510.8184568405151
 70
   192
  0
VERTEX
  5
3C2
330
3BD
100
AcDbEntity
  8
Q-SPCQ
100
AcDbFaceRecord
 10
0.0
 20
0.0
 30
0.0
 70
   128
 71
     1
 72
     2
 73
     3
 74
     4
  0
SEQEND
  5
3C3
330
3BD
100
AcDbEntity
  8
Q-SPCQ
  0
POLYLINE
  5
3C4
330
12F
100
AcDbEntity
  8
Q-SPCQ
100
AcDbPolyFaceMesh
 66
     1
 10
0.0
 20
0.0
 30
0.0
 70
    64
 71
     4
 72
     1
1001
REVIT
1002
{
1070
     2
1000
-2001350
1002
}
  0
VERTEX
  5
3C5
330
3C4
100
AcDbEntity
  8
Q-SPCQ
100
AcDbVertex
100
AcDbPolyFaceMeshVertex
 10
280.3704046726227
 20
-316.8959186553955
 30
528.8184482574463
 70
   192
  0
VERTEX
  5
3C6
330
3C4
100
AcDbEntity
  8
Q-SPCQ
100
AcDbVertex
100
AcDbPolyFaceMeshVertex
 10
343.8070667266846
 20
-316.8959186553955
 30
528.8184482574463
 70
   192
  0
VERTEX
  5
3C7
330
3C4
100
AcDbEntity
  8
Q-SPCQ
100
AcDbVertex
100
AcDbPolyFaceMeshVertex
 10
343.8070667266846
 20
-316.8959186553955
 30
510.8184568405151
 70
   192
  0
VERTEX
  5
3C8
330
3C4
100
AcDbEntity
  8
Q-SPCQ
100
AcDbVertex
100
AcDbPolyFaceMeshVertex
 10
280.3704046726227
 20
-316.8959186553955
 30
510.8184568405151
 70
   192
  0
VERTEX
  5
3C9
330
3C4
100
AcDbEntity
  8
Q-SPCQ
100
AcDbFaceRecord
 10
0.0
 20
0.0
 30
0.0
 70
   128
 71
     1
 72
     2
 73
     3
 74
     4
  0
SEQEND
  5
3CA
330
3C4
100
AcDbEntity
  8
Q-SPCQ
  0
POLYLINE
  5
3CB
330
12F
100
AcDbEntity
  8
Q-SPCQ
100
AcDbPolyFaceMesh
 66
     1
 10
0.0
 20
0.0
 30
0.0
 70
    64
 71
     4
 72
     1
1001
REVIT
1002
{
1070
     2
1000
-2001350
1002
}
  0
VERTEX
  5
3CC
330
3CB
100
AcDbEntity
  8
Q-SPCQ
100
AcDbVertex
100
AcDbPolyFaceMeshVertex
 10
280.3704046726227
 20
-316.8959186553955
 30
528.8184482574463
 70
   192
  0
VERTEX
  5
3CD
330
3CB
100
AcDbEntity
  8
Q-SPCQ
100
AcDbVertex
100
AcDbPolyFaceMeshVertex
 10
280.3704046726227
 20
-360.5721044540405
 30
528.8184482574463
 70
   192
  0
VERTEX
  5
3CE
330
3CB
100
AcDbEntity
  8
Q-SPCQ
100
AcDbVertex
100
AcDbPolyFaceMeshVertex
 10
343.8070667266846
 20
-360.5721044540405
 30
528.8184482574463
 70
   192
  0
VERTEX
  5
3CF
330
3CB
100
AcDbEntity
  8
Q-SPCQ
100
AcDbVertex
100
AcDbPolyFaceMeshVertex
 10
343.8070667266846
 20
-316.8959186553955
 30
528.8184482574463
 70
   192
  0
VERTEX
  5
3D0
330
3CB
100
AcDbEntity
  8
Q-SPCQ
100
AcDbFaceRecord
 10
0.0
 20
0.0
 30
0.0
 70
   128
 71
     1
 72
     2
 73
     3
 74
     4
  0
SEQEND
  5
3D1
330
3CB
100
AcDbEntity
  8
Q-SPCQ
  0
ENDBLK
  5
3D3
330
12F
100
AcDbEntity
  8
0
100
AcDbBlockEnd
  0
ENDSEC
  0
SECTION
  2
ENTITIES
  0
INSERT
  5
DA
330
70
100
AcDbEntity
  8
0
 62
     8
370
    30
100
AcDbBlockReference
  2
FamilyGeomCombination_6960-_3D_
 10
0.0
 20
0.0
 30
0.0
1001
REVIT
1002
{
1070
     1
1000
6960
1002
}
1002
{
1070
     2
1000
-2001350
1002
}
  0
POLYLINE
  5
DB
330
70
100
AcDbEntity
  8
Q-SPCQ
100
AcDbPolyFaceMesh
 66
     1
 10
0.0
 20
0.0
 30
0.0
 70
    64
 71
     4
 72
     1
1001
REVIT
1002
{
1070
     1
1000
10390
1002
}
1002
{
1070
     2
1000
-2001350
1002
}
  0
VERTEX
  5
DC
330
DB
100
AcDbEntity
  8
Q-SPCQ
100
AcDbVertex
100
AcDbPolyFaceMeshVertex
 10
385.0000102043152
 20
-290.016472864151
 30
579.5540868759156
 70
   192
  0
VERTEX
  5
DD
330
DB
100
AcDbEntity
  8
Q-SPCQ
100
AcDbVertex
100
AcDbPolyFaceMeshVertex
 10
-385.0000102043152
 20
-290.016472864151
 30
579.5540868759156
 70
   192
  0
VERTEX
  5
DE
330
DB
100
AcDbEntity
  8
Q-SPCQ
100
AcDbVertex
100
AcDbPolyFaceMeshVertex
 10
-385.0000102043152
 20
-290.016472864151
 30
740.000034713745
 70
   192
  0
VERTEX
  5
DF
330
DB
100
AcDbEntity
  8
Q-SPCQ
100
AcDbVertex
100
AcDbPolyFaceMeshVertex
 10
385.0000102043152
 20
-290.016472864151
 30
740.000034713745
 70
   192
  0
VERTEX
  5
E0
330
DB
100
AcDbEntity
  8
Q-SPCQ
100
AcDbFaceRecord
 10
0.0
 20
0.0
 30
0.0
 70
   128
 71
     1
 72
     2
 73
     3
 74
     4
  0
SEQEND
  5
E1
330
DB
100
AcDbEntity
  8
Q-SPCQ
  0
POLYLINE
  5
E2
330
70
100
AcDbEntity
  8
Q-SPCQ
100
AcDbPolyFaceMesh
 66
     1
 10
0.0
 20
0.0
 30
0.0
 70
    64
 71
     4
 72
     1
1001
REVIT
1002
{
1070
     1
1000
10390
1002
}
1002
{
1070
     2
1000
-2001350
1002
}
  0
VERTEX
  5
E3
330
E2
100
AcDbEntity
  8
Q-SPCQ
100
AcDbVertex
100
AcDbPolyFaceMeshVertex
 10
-385.0000102043152
 20
-316.8959186553955
 30
740.000034713745
 70
   192
  0
VERTEX
  5
E4
330
E2
100
AcDbEntity
  8
Q-SPCQ
100
AcDbVertex
100
AcDbPolyFaceMeshVertex
 10
-385.0000102043152
 20
-316.8959186553955
 30
579.5540868759156
 70
   192
  0
VERTEX
  5
E5
330
E2
100
AcDbEntity
  8
Q-SPCQ
100
AcDbVertex
100
AcDbPolyFaceMeshVertex
 10
385.0000102043152
 20
-316.8959186553955
 30
579.5540868759156
 70
   192
  0
VERTEX
  5
E6
330
E2
100
AcDbEntity
  8
Q-SPCQ
100
AcDbVertex
100
AcDbPolyFaceMeshVertex
 10
385.0000102043152
 20
-316.8959186553955
 30
740.000034713745
 70
   192
  0
VERTEX
  5
E7
330
E2
100
AcDbEntity
  8
Q-SPCQ
100
AcDbFaceRecord
 10
0.0
 20
0.0
 30
0.0
 70
   128
 71
     1
 72
     2
 73
     3
 74
     4
  0
SEQEND
  5
E8
330
E2
100
AcDbEntity
  8
Q-SPCQ
  0
POLYLINE
  5
E9
330
70
100
AcDbEntity
  8
Q-SPCQ
100
AcDbPolyFaceMesh
 66
     1
 10
0.0
 20
0.0
 30
0.0
 70
    64
 71
     4
 72
     1
1001
REVIT
1002
{
1070
     1
1000
10390
1002
}
1002
{
1070
     2
1000
-2001350
1002
}
  0
VERTEX
  5
EA
330
E9
100
AcDbEntity
  8
Q-SPCQ
100
AcDbVertex
100
AcDbPolyFaceMeshVertex
 10
385.0000102043152
 20
-316.8959186553955
 30
740.000034713745
 70
   192
  0
VERTEX
  5
EB
330
E9
100
AcDbEntity
  8
Q-SPCQ
100
AcDbVertex
100
AcDbPolyFaceMeshVertex
 10
385.0000102043152
 20
-290.016472864151
 30
740.000034713745
 70
   192
  0
VERTEX
  5
EC
330
E9
100
AcDbEntity
  8
Q-SPCQ
100
AcDbVertex
100
AcDbPolyFaceMeshVertex
 10
-385.0000102043152
 20
-290.016472864151
 30
740.000034713745
 70
   192
  0
VERTEX
  5
ED
330
E9
100
AcDbEntity
  8
Q-SPCQ
100
AcDbVertex
100
AcDbPolyFaceMeshVertex
 10
-385.0000102043152
 20
-316.8959186553955
 30
740.000034713745
 70
   192
  0
VERTEX
  5
EE
330
E9
100
AcDbEntity
  8
Q-SPCQ
100
AcDbFaceRecord
 10
0.0
 20
0.0
 30
0.0
 70
   128
 71
     1
 72
     2
 73
     3
 74
     4
  0
SEQEND
  5
EF
330
E9
100
AcDbEntity
  8
Q-SPCQ
  0
POLYLINE
  5
F0
330
70
100
AcDbEntity
  8
Q-SPCQ
100
AcDbPolyFaceMesh
 66
     1
 10
0.0
 20
0.0
 30
0.0
 70
    64
 71
     4
 72
     1
1001
REVIT
1002
{
1070
     1
1000
10390
1002
}
1002
{
1070
     2
1000
-2001350
1002
}
  0
VERTEX
  5
F1
330
F0
100
AcDbEntity
  8
Q-SPCQ
100
AcDbVertex
100
AcDbPolyFaceMeshVertex
 10
-385.0000102043152
 20
-316.8959186553955
 30
740.000034713745
 70
   192
  0
VERTEX
  5
F2
330
F0
100
AcDbEntity
  8
Q-SPCQ
100
AcDbVertex
100
AcDbPolyFaceMeshVertex
 10
-385.0000102043152
 20
-290.016472864151
 30
740.000034713745
 70
   192
  0
VERTEX
  5
F3
330
F0
100
AcDbEntity
  8
Q-SPCQ
100
AcDbVertex
100
AcDbPolyFaceMeshVertex
 10
-385.0000102043152
 20
-290.016472864151
 30
579.5540868759156
 70
   192
  0
VERTEX
  5
F4
330
F0
100
AcDbEntity
  8
Q-SPCQ
100
AcDbVertex
100
AcDbPolyFaceMeshVertex
 10
-385.0000102043152
 20
-316.8959186553955
 30
579.5540868759156
 70
   192
  0
VERTEX
  5
F5
330
F0
100
AcDbEntity
  8
Q-SPCQ
100
AcDbFaceRecord
 10
0.0
 20
0.0
 30
0.0
 70
   128
 71
     1
 72
     2
 73
     3
 74
     4
  0
SEQEND
  5
F6
330
F0
100
AcDbEntity
  8
Q-SPCQ
  0
POLYLINE
  5
F7
330
70
100
AcDbEntity
  8
Q-SPCQ
100
AcDbPolyFaceMesh
 66
     1
 10
0.0
 20
0.0
 30
0.0
 70
    64
 71
     4
 72
     1
1001
REVIT
1002
{
1070
     1
1000
10390
1002
}
1002
{
1070
     2
1000
-2001350
1002
}
  0
VERTEX
  5
F8
330
F7
100
AcDbEntity
  8
Q-SPCQ
100
AcDbVertex
100
AcDbPolyFaceMeshVertex
 10
-385.0000102043152
 20
-316.8959186553955
 30
579.5540868759156
 70
   192
  0
VERTEX
  5
F9
330
F7
100
AcDbEntity
  8
Q-SPCQ
100
AcDbVertex
100
AcDbPolyFaceMeshVertex
 10
-385.0000102043152
 20
-290.016472864151
 30
579.5540868759156
 70
   192
  0
VERTEX
  5
FA
330
F7
100
AcDbEntity
  8
Q-SPCQ
100
AcDbVertex
100
AcDbPolyFaceMeshVertex
 10
385.0000102043152
 20
-290.016472864151
 30
579.5540868759156
 70
   192
  0
VERTEX
  5
FB
330
F7
100
AcDbEntity
  8
Q-SPCQ
100
AcDbVertex
100
AcDbPolyFaceMeshVertex
 10
385.0000102043152
 20
-316.8959186553955
 30
579.5540868759156
 70
   192
  0
VERTEX
  5
FC
330
F7
100
AcDbEntity
  8
Q-SPCQ
100
AcDbFaceRecord
 10
0.0
 20
0.0
 30
0.0
 70
   128
 71
     1
 72
     2
 73
     3
 74
     4
  0
SEQEND
  5
FD
330
F7
100
AcDbEntity
  8
Q-SPCQ
  0
POLYLINE
  5
FE
330
70
100
AcDbEntity
  8
Q-SPCQ
100
AcDbPolyFaceMesh
 66
     1
 10
0.0
 20
0.0
 30
0.0
 70
    64
 71
     4
 72
     1
1001
REVIT
1002
{
1070
     1
1000
10390
1002
}
1002
{
1070
     2
1000
-2001350
1002
}
  0
VERTEX
  5
FF
330
FE
100
AcDbEntity
  8
Q-SPCQ
100
AcDbVertex
100
AcDbPolyFaceMeshVertex
 10
385.0000102043152
 20
-316.8959186553955
 30
579.5540868759156
 70
   192
  0
VERTEX
  5
100
330
FE
100
AcDbEntity
  8
Q-SPCQ
100
AcDbVertex
100
AcDbPolyFaceMeshVertex
 10
385.0000102043152
 20
-290.016472864151
 30
579.5540868759156
 70
   192
  0
VERTEX
  5
101
330
FE
100
AcDbEntity
  8
Q-SPCQ
100
AcDbVertex
100
AcDbPolyFaceMeshVertex
 10
385.0000102043152
 20
-290.016472864151
 30
740.000034713745
 70
   192
  0
VERTEX
  5
102
330
FE
100
AcDbEntity
  8
Q-SPCQ
100
AcDbVertex
100
AcDbPolyFaceMeshVertex
 10
385.0000102043152
 20
-316.8959186553955
 30
740.000034713745
 70
   192
  0
VERTEX
  5
103
330
FE
100
AcDbEntity
  8
Q-SPCQ
100
AcDbFaceRecord
 10
0.0
 20
0.0
 30
0.0
 70
   128
 71
     1
 72
     2
 73
     3
 74
     4
  0
SEQEND
  5
104
330
FE
100
AcDbEntity
  8
Q-SPCQ
  0
POLYLINE
  5
105
330
70
100
AcDbEntity
  8
Q-SPCQ
100
AcDbPolyFaceMesh
 66
     1
 10
0.0
 20
0.0
 30
0.0
 70
    64
 71
     4
 72
     1
1001
REVIT
1002
{
1070
     1
1000
11787
1002
}
1002
{
1070
     2
1000
-2001350
1002
}
  0
VERTEX
  5
106
330
105
100
AcDbEntity
  8
Q-SPCQ
100
AcDbVertex
100
AcDbPolyFaceMeshVertex
 10
385.0000102043152
 20
-289.9999949455261
 30
21.99999935030938
 70
   192
  0
VERTEX
  5
107
330
105
100
AcDbEntity
  8
Q-SPCQ
100
AcDbVertex
100
AcDbPolyFaceMeshVertex
 10
-385.0000102043152
 20
-289.9999949455261
 30
21.99999935030938
 70
   192
  0
VERTEX
  5
108
330
105
100
AcDbEntity
  8
Q-SPCQ
100
AcDbVertex
100
AcDbPolyFaceMeshVertex
 10
-385.0000102043152
 20
-289.9999949455261
 30
572.0000058174133
 70
   192
  0
VERTEX
  5
109
330
105
100
AcDbEntity
  8
Q-SPCQ
100
AcDbVertex
100
AcDbPolyFaceMeshVertex
 10
385.0000102043152
 20
-289.9999949455261
 30
572.0000058174133
 70
   192
  0
VERTEX
  5
10A
330
105
100
AcDbEntity
  8
Q-SPCQ
100
AcDbFaceRecord
 10
0.0
 20
0.0
 30
0.0
 70
   128
 71
     1
 72
     2
 73
     3
 74
     4
  0
SEQEND
  5
10B
330
105
100
AcDbEntity
  8
Q-SPCQ
  0
POLYLINE
  5
10C
330
70
100
AcDbEntity
  8
Q-SPCQ
100
AcDbPolyFaceMesh
 66
     1
 10
0.0
 20
0.0
 30
0.0
 70
    64
 71
     4
 72
     1
1001
REVIT
1002
{
1070
     1
1000
11787
1002
}
1002
{
1070
     2
1000
-2001350
1002
}
  0
VERTEX
  5
10D
330
10C
100
AcDbEntity
  8
Q-SPCQ
100
AcDbVertex
100
AcDbPolyFaceMeshVertex
 10
-385.0000102043152
 20
-316.8959186553955
 30
572.0000058174133
 70
   192
  0
VERTEX
  5
10E
330
10C
100
AcDbEntity
  8
Q-SPCQ
100
AcDbVertex
100
AcDbPolyFaceMeshVertex
 10
-385.0000102043152
 20
-316.8959186553955
 30
21.99999935030938
 70
   192
  0
VERTEX
  5
10F
330
10C
100
AcDbEntity
  8
Q-SPCQ
100
AcDbVertex
100
AcDbPolyFaceMeshVertex
 10
385.0000102043152
 20
-316.8959186553955
 30
21.99999935030938
 70
   192
  0
VERTEX
  5
110
330
10C
100
AcDbEntity
  8
Q-SPCQ
100
AcDbVertex
100
AcDbPolyFaceMeshVertex
 10
385.0000102043152
 20
-316.8959186553955
 30
572.0000058174133
 70
   192
  0
VERTEX
  5
111
330
10C
100
AcDbEntity
  8
Q-SPCQ
100
AcDbFaceRecord
 10
0.0
 20
0.0
 30
0.0
 70
   128
 71
     1
 72
     2
 73
     3
 74
     4
  0
SEQEND
  5
112
330
10C
100
AcDbEntity
  8
Q-SPCQ
  0
POLYLINE
  5
113
330
70
100
AcDbEntity
  8
Q-SPCQ
100
AcDbPolyFaceMesh
 66
     1
 10
0.0
 20
0.0
 30
0.0
 70
    64
 71
     4
 72
     1
1001
REVIT
1002
{
1070
     1
1000
11787
1002
}
1002
{
1070
     2
1000
-2001350
1002
}
  0
VERTEX
  5
114
330
113
100
AcDbEntity
  8
Q-SPCQ
100
AcDbVertex
100
AcDbPolyFaceMeshVertex
 10
385.0000102043152
 20
-316.8959186553955
 30
572.0000058174133
 70
   192
  0
VERTEX
  5
115
330
113
100
AcDbEntity
  8
Q-SPCQ
100
AcDbVertex
100
AcDbPolyFaceMeshVertex
 10
385.0000102043152
 20
-289.9999949455261
 30
572.0000058174133
 70
   192
  0
VERTEX
  5
116
330
113
100
AcDbEntity
  8
Q-SPCQ
100
AcDbVertex
100
AcDbPolyFaceMeshVertex
 10
-385.0000102043152
 20
-289.9999949455261
 30
572.0000058174133
 70
   192
  0
VERTEX
  5
117
330
113
100
AcDbEntity
  8
Q-SPCQ
100
AcDbVertex
100
AcDbPolyFaceMeshVertex
 10
-385.0000102043152
 20
-316.8959186553955
 30
572.0000058174133
 70
   192
  0
VERTEX
  5
118
330
113
100
AcDbEntity
  8
Q-SPCQ
100
AcDbFaceRecord
 10
0.0
 20
0.0
 30
0.0
 70
   128
 71
     1
 72
     2
 73
     3
 74
     4
  0
SEQEND
  5
119
330
113
100
AcDbEntity
  8
Q-SPCQ
  0
POLYLINE
  5
11A
330
70
100
AcDbEntity
  8
Q-SPCQ
100
AcDbPolyFaceMesh
 66
     1
 10
0.0
 20
0.0
 30
0.0
 70
    64
 71
     4
 72
     1
1001
REVIT
1002
{
1070
     1
1000
11787
1002
}
1002
{
1070
     2
1000
-2001350
1002
}
  0
VERTEX
  5
11B
330
11A
100
AcDbEntity
  8
Q-SPCQ
100
AcDbVertex
100
AcDbPolyFaceMeshVertex
 10
-385.0000102043152
 20
-316.8959186553955
 30
572.0000058174133
 70
   192
  0
VERTEX
  5
11C
330
11A
100
AcDbEntity
  8
Q-SPCQ
100
AcDbVertex
100
AcDbPolyFaceMeshVertex
 10
-385.0000102043152
 20
-289.9999949455261
 30
572.0000058174133
 70
   192
  0
VERTEX
  5
11D
330
11A
100
AcDbEntity
  8
Q-SPCQ
100
AcDbVertex
100
AcDbPolyFaceMeshVertex
 10
-385.0000102043152
 20
-289.9999949455261
 30
21.99999935030938
 70
   192
  0
VERTEX
  5
11E
330
11A
100
AcDbEntity
  8
Q-SPCQ
100
AcDbVertex
100
AcDbPolyFaceMeshVertex
 10
-385.0000102043152
 20
-316.8959186553955
 30
21.99999935030938
 70
   192
  0
VERTEX
  5
11F
330
11A
100
AcDbEntity
  8
Q-SPCQ
100
AcDbFaceRecord
 10
0.0
 20
0.0
 30
0.0
 70
   128
 71
     1
 72
     2
 73
     3
 74
     4
  0
SEQEND
  5
120
330
11A
100
AcDbEntity
  8
Q-SPCQ
  0
POLYLINE
  5
121
330
70
100
AcDbEntity
  8
Q-SPCQ
100
AcDbPolyFaceMesh
 66
     1
 10
0.0
 20
0.0
 30
0.0
 70
    64
 71
     4
 72
     1
1001
REVIT
1002
{
1070
     1
1000
11787
1002
}
1002
{
1070
     2
1000
-2001350
1002
}
  0
VERTEX
  5
122
330
121
100
AcDbEntity
  8
Q-SPCQ
100
AcDbVertex
100
AcDbPolyFaceMeshVertex
 10
-385.0000102043152
 20
-316.8959186553955
 30
21.99999935030938
 70
   192
  0
VERTEX
  5
123
330
121
100
AcDbEntity
  8
Q-SPCQ
100
AcDbVertex
100
AcDbPolyFaceMeshVertex
 10
-385.0000102043152
 20
-289.9999949455261
 30
21.99999935030938
 70
   192
  0
VERTEX
  5
124
330
121
100
AcDbEntity
  8
Q-SPCQ
100
AcDbVertex
100
AcDbPolyFaceMeshVertex
 10
385.0000102043152
 20
-289.9999949455261
 30
21.99999935030938
 70
   192
  0
VERTEX
  5
125
330
121
100
AcDbEntity
  8
Q-SPCQ
100
AcDbVertex
100
AcDbPolyFaceMeshVertex
 10
385.0000102043152
 20
-316.8959186553955
 30
21.99999935030938
 70
   192
  0
VERTEX
  5
126
330
121
100
AcDbEntity
  8
Q-SPCQ
100
AcDbFaceRecord
 10
0.0
 20
0.0
 30
0.0
 70
   128
 71
     1
 72
     2
 73
     3
 74
     4
  0
SEQEND
  5
127
330
121
100
AcDbEntity
  8
Q-SPCQ
  0
POLYLINE
  5
128
330
70
100
AcDbEntity
  8
Q-SPCQ
100
AcDbPolyFaceMesh
 66
     1
 10
0.0
 20
0.0
 30
0.0
 70
    64
 71
     4
 72
     1
1001
REVIT
1002
{
1070
     1
1000
11787
1002
}
1002
{
1070
     2
1000
-2001350
1002
}
  0
VERTEX
  5
129
330
128
100
AcDbEntity
  8
Q-SPCQ
100
AcDbVertex
100
AcDbPolyFaceMeshVertex
 10
385.0000102043152
 20
-316.8959186553955
 30
21.99999935030938
 70
   192
  0
VERTEX
  5
12A
330
128
100
AcDbEntity
  8
Q-SPCQ
100
AcDbVertex
100
AcDbPolyFaceMeshVertex
 10
385.0000102043152
 20
-289.9999949455261
 30
21.99999935030938
 70
   192
  0
VERTEX
  5
12B
330
128
100
AcDbEntity
  8
Q-SPCQ
100
AcDbVertex
100
AcDbPolyFaceMeshVertex
 10
385.0000102043152
 20
-289.9999949455261
 30
572.0000058174133
 70
   192
  0
VERTEX
  5
12C
330
128
100
AcDbEntity
  8
Q-SPCQ
100
AcDbVertex
100
AcDbPolyFaceMeshVertex
 10
385.0000102043152
 20
-316.8959186553955
 30
572.0000058174133
 70
   192
  0
VERTEX
  5
12D
330
128
100
AcDbEntity
  8
Q-SPCQ
100
AcDbFaceRecord
 10
0.0
 20
0.0
 30
0.0
 70
   128
 71
     1
 72
     2
 73
     3
 74
     4
  0
SEQEND
  5
12E
330
128
100
AcDbEntity
  8
Q-SPCQ
  0
INSERT
  5
3D4
330
70
100
AcDbEntity
  8
Q-SPCQ
100
AcDbBlockReference
  2
FamilyGeomCombination_15715-_3D_
 10
0.0
 20
0.0
 30
0.0
1001
REVIT
1002
{
1070
     1
1000
15715
1002
}
1002
{
1070
     2
1000
-2001350
1002
}
  0
ENDSEC
  0
SECTION
  2
OBJECTS
  0
DICTIONARY
  5
C
330
0
100
AcDbDictionary
281
     1
  3
ACAD_CIP_PREVIOUS_PRODUCT_INFO
350
79
  3
ACAD_COLOR
350
63
  3
ACAD_DETAILVIEWSTYLE
350
6A
  3
ACAD_GROUP
350
D
  3
ACAD_IMAGE_VARS
350
7A
  3
ACAD_LAYOUT
350
62
  3
ACAD_MATERIAL
350
10
  3
ACAD_MLEADERSTYLE
350
66
  3
ACAD_MLINESTYLE
350
5F
  3
ACAD_PLOTSETTINGS
350
61
  3
ACAD_PLOTSTYLENAME
350
E
  3
ACAD_SCALELIST
350
42
  3
ACAD_SECTIONVIEWSTYLE
350
68
  3
ACAD_TABLESTYLE
350
64
  3
ACAD_VISUALSTYLE
350
29
  3
ACDB_RECOMPOSE_DATA
350
3DC
  3
AcDbVariableDictionary
350
7B
  3
REVIT_DICTIONARY
350
3D7
  0
XRECORD
  5
79
102
{ACAD_REACTORS
330
C
102
}
330
C
100
AcDbXrecord
280
     1
300
RVTLT
300
2021
300
RVTLT2021
  0
DICTIONARY
  5
63
102
{ACAD_REACTORS
330
C
102
}
330
C
100
AcDbDictionary
281
     1
  0
DICTIONARY
  5
6A
102
{ACAD_REACTORS
330
C
102
}
330
C
100
AcDbDictionary
281
     1
  3
Imperial24
350
6B
  0
DICTIONARY
  5
D
102
{ACAD_REACTORS
330
C
102
}
330
C
100
AcDbDictionary
281
     1
  0
RASTERVARIABLES
  5
7A
102
{ACAD_REACTORS
330
C
102
}
330
C
100
AcDbRasterVariables
 90
        0
 70
     0
 71
     1
 72
     1
  0
DICTIONARY
  5
62
102
{ACAD_REACTORS
330
C
102
}
330
C
100
AcDbDictionary
281
     1
  3
Layout1
350
6F
  3
Layout2
350
77
  3
Model
350
73
  0
DICTIONARY
  5
10
102
{ACAD_REACTORS
330
C
102
}
330
C
100
AcDbDictionary
281
     1
  3
ByBlock
350
19
  3
ByLayer
350
11
  3
Global
350
21
  0
DICTIONARY
  5
66
102
{ACAD_REACTORS
330
C
102
}
330
C
100
AcDbDictionary
281
     1
  3
Standard
350
67
  0
DICTIONARY
  5
5F
102
{ACAD_REACTORS
330
C
102
}
330
C
100
AcDbDictionary
281
     1
  3
Standard
350
60
  0
DICTIONARY
  5
61
102
{ACAD_REACTORS
330
C
102
}
330
C
100
AcDbDictionary
281
     1
  0
ACDBDICTIONARYWDFLT
  5
E
102
{ACAD_REACTORS
330
C
102
}
330
C
100
AcDbDictionary
281
     1
  3
Normal
350
F
100
AcDbDictionaryWithDefault
340
F
  0
DICTIONARY
  5
42
102
{ACAD_REACTORS
330
C
102
}
330
C
100
AcDbDictionary
281
     1
  3
A0
350
43
  3
A1
350
44
  3
A2
350
45
  3
A3
350
46
  3
A4
350
47
  3
A5
350
48
  3
A6
350
49
  3
A7
350
4A
  3
A8
350
4B
  3
A9
350
4C
  3
B0
350
4D
  3
B1
350
4E
  3
B2
350
4F
  3
B3
350
50
  3
B4
350
51
  3
B5
350
52
  3
B6
350
53
  0
DICTIONARY
  5
68
102
{ACAD_REACTORS
330
C
102
}
330
C
100
AcDbDictionary
281
     1
  3
Imperial24
350
69
  0
DICTIONARY
  5
64
102
{ACAD_REACTORS
330
C
102
}
330
C
100
AcDbDictionary
281
     1
  3
Standard
350
65
  0
DICTIONARY
  5
29
102
{ACAD_REACTORS
330
C
102
}
330
C
100
AcDbDictionary
281
     1
  3
2dWireframe
350
2F
  3
Basic
350
2E
  3
Brighten
350
35
  3
ColorChange
350
39
  3
Conceptual
350
32
  3
Dim
350
34
  3
EdgeColorOff
350
41
  3
Facepattern
350
38
  3
Flat
350
2A
  3
FlatWithEdges
350
2B
  3
Gouraud
350
2C
  3
GouraudWithEdges
350
2D
  3
Hidden
350
31
  3
JitterOff
350
3F
  3
Linepattern
350
37
  3
OverhangOff
350
40
  3
Realistic
350
33
  3
REVIT_VISUAL_STYLE
350
3D5
  3
Shaded
350
3E
  3
Shaded with edges
350
3D
  3
Shades of Gray
350
3A
  3
Sketchy
350
3B
  3
Thicken
350
36
  3
Wireframe
350
30
  3
X-Ray
350
3C
  0
XRECORD
  5
3DC
102
{ACAD_REACTORS
330
C
102
}
330
C
100
AcDbXrecord
280
     1
 90
        1
330
65
  0
DICTIONARY
  5
7B
102
{ACAD_REACTORS
330
C
102
}
330
C
100
AcDbDictionary
281
     1
  3
CANNOSCALE
350
80
  3
CMLEADERSTYLE
350
7D
  3
CTABLESTYLE
350
7C
  3
CVIEWDETAILSTYLE
350
7E
  3
CVIEWSECTIONSTYLE
350
7F
  0
DICTIONARY
  5
3D7
102
{ACAD_REACTORS
330
C
102
}
330
C
100
AcDbDictionary
281
     1
  3
DRAWING_TOOL
350
3D9
  3
REVIT_CATEGORY_MAPPING
350
3D8
  0
ACDBDETAILVIEWSTYLE
  5
6B
102
{ACAD_REACTORS
330
6A
102
}
330
6A
100
AcDbModelDocViewStyle
 70
     0
  3
Imperial24
290
     1
300
Imperial24
 90
        0
100
AcDbDetailViewStyle
 70
     0
 71
     0
 90
        3
 71
     1
340
55
 62
   256
 40
0.24
340
0
 62
   256
 40
0.24
300

 40
0.36
280
     3
 71
     2
340
5D
 90
       25
 62
   256
 71
     3
340
55
 62
   256
 40
0.24
 90
        1
 40
0.75
 90
        1
300
%<\AcVar ViewType \f "%tc1">% %<\AcVar ViewDetailId>%\PSCALE %<\AcVar ViewScale \f "%sn">%
 71
     4
340
5D
 90
       25
 62
   256
340
5D
 90
       25
 62
   256
280
     0
  0
LAYOUT
  5
6F
102
{ACAD_REACTORS
330
62
102
}
330
62
100
AcDbPlotSettings
  1

  2

  4

  6

 40
0.0
 41
0.0
 42
0.0
 43
0.0
 44
0.0
 45
0.0
 46
0.0
 47
0.0
 48
0.0
 49
0.0
140
0.0
141
0.0
142
1.0
143
1.0
 70
   688
 72
     0
 73
     0
 74
     5
  7

 75
    16
147
1.0
 76
     0
 77
     2
 78
   300
148
0.0
149
0.0
100
AcDbLayout
  1
Layout1
 70
     1
 71
     1
 10
0.0
 20
0.0
 11
12.0
 21
9.0
 12
0.0
 22
0.0
 32
0.0
 14
0.0
 24
0.0
 34
0.0
 15
0.0
 25
0.0
 35
0.0
146
0.0
 13
0.0
 23
0.0
 33
0.0
 16
1.0
 26
0.0
 36
0.0
 17
0.0
 27
1.0
 37
0.0
 76
     0
330
6C
  0
LAYOUT
  5
77
102
{ACAD_REACTORS
330
62
102
}
330
62
100
AcDbPlotSettings
  1

  2

  4

  6

 40
0.0
 41
0.0
 42
0.0
 43
0.0
 44
0.0
 45
0.0
 46
0.0
 47
0.0
 48
0.0
 49
0.0
140
0.0
141
0.0
142
1.0
143
1.0
 70
   688
 72
     0
 73
     0
 74
     5
  7

 75
    16
147
1.0
 76
     0
 77
     2
 78
   300
148
0.0
149
0.0
100
AcDbLayout
  1
Layout2
 70
     1
 71
     2
 10
0.0
 20
0.0
 11
12.0
 21
9.0
 12
0.0
 22
0.0
 32
0.0
 14
0.0
 24
0.0
 34
0.0
 15
0.0
 25
0.0
 35
0.0
146
0.0
 13
0.0
 23
0.0
 33
0.0
 16
1.0
 26
0.0
 36
0.0
 17
0.0
 27
1.0
 37
0.0
 76
     0
330
74
  0
LAYOUT
  5
73
102
{ACAD_REACTORS
330
62
102
}
330
62
100
AcDbPlotSettings
  1

  2

  4

  6

 40
0.0
 41
0.0
 42
0.0
 43
0.0
 44
0.0
 45
0.0
 46
0.0
 47
0.0
 48
0.0
 49
0.0
140
0.0
141
0.0
142
1.0
143
1.0
 70
  1712
 72
     0
 73
     0
 74
     0
  7

 75
     0
147
1.0
 76
     0
 77
     2
 78
   300
148
0.0
149
0.0
100
AcDbLayout
  1
Model
 70
     1
 71
     0
 10
0.0
 20
0.0
 11
12.0
 21
9.0
 12
0.0
 22
0.0
 32
0.0
 14
0.0
 24
0.0
 34
0.0
 15
0.0
 25
0.0
 35
0.0
146
0.0
 13
0.0
 23
0.0
 33
0.0
 16
1.0
 26
0.0
 36
0.0
 17
0.0
 27
1.0
 37
0.0
 76
     0
330
70
  0
MATERIAL
  5
19
102
{ACAD_XDICTIONARY
360
1A
102
}
102
{ACAD_REACTORS
330
10
102
}
330
10
100
AcDbMaterial
  1
ByBlock
 72
     0
 43
0.0208333333333333
 43
0.0
 43
0.0
 43
0.0
 43
0.0
 43
0.0208333333333333
 43
0.0
 43
0.0
 43
0.0
 43
0.0
 43
1.0
 43
0.0
 43
0.0
 43
0.0
 43
0.0
 43
1.0
 77
     0
 47
0.0208333333333333
 47
0.0
 47
0.0
 47
0.0
 47
0.0
 47
0.0208333333333333
 47
0.0
 47
0.0
 47
0.0
 47
0.0
 47
1.0
 47
0.0
 47
0.0
 47
0.0
 47
0.0
 47
1.0
171
     0
 49
0.0208333333333333
 49
0.0
 49
0.0
 49
0.0
 49
0.0
 49
0.0208333333333333
 49
0.0
 49
0.0
 49
0.0
 49
0.0
 49
1.0
 49
0.0
 49
0.0
 49
0.0
 49
0.0
 49
1.0
175
     0
142
0.0208333333333333
142
0.0
142
0.0
142
0.0
142
0.0
142
0.0208333333333333
142
0.0
142
0.0
142
0.0
142
0.0
142
1.0
142
0.0
142
0.0
142
0.0
142
0.0
142
1.0
179
     0
144
0.0208333333333333
144
0.0
144
0.0
144
0.0
144
0.0
144
0.0208333333333333
144
0.0
144
0.0
144
0.0
144
0.0
144
1.0
144
0.0
144
0.0
144
0.0
144
0.0
144
1.0
147
0.0208333333333333
147
0.0
147
0.0
147
0.0
147
0.0
147
0.0208333333333333
147
0.0
147
0.0
147
0.0
147
0.0
147
1.0
147
0.0
147
0.0
147
0.0
147
0.0
147
1.0
  0
MATERIAL
  5
11
102
{ACAD_XDICTIONARY
360
12
102
}
102
{ACAD_REACTORS
330
10
102
}
330
10
100
AcDbMaterial
  1
ByLayer
 72
     0
 43
0.0208333333333333
 43
0.0
 43
0.0
 43
0.0
 43
0.0
 43
0.0208333333333333
 43
0.0
 43
0.0
 43
0.0
 43
0.0
 43
1.0
 43
0.0
 43
0.0
 43
0.0
 43
0.0
 43
1.0
 77
     0
 47
0.0208333333333333
 47
0.0
 47
0.0
 47
0.0
 47
0.0
 47
0.0208333333333333
 47
0.0
 47
0.0
 47
0.0
 47
0.0
 47
1.0
 47
0.0
 47
0.0
 47
0.0
 47
0.0
 47
1.0
171
     0
 49
0.0208333333333333
 49
0.0
 49
0.0
 49
0.0
 49
0.0
 49
0.0208333333333333
 49
0.0
 49
0.0
 49
0.0
 49
0.0
 49
1.0
 49
0.0
 49
0.0
 49
0.0
 49
0.0
 49
1.0
175
     0
142
0.0208333333333333
142
0.0
142
0.0
142
0.0
142
0.0
142
0.0208333333333333
142
0.0
142
0.0
142
0.0
142
0.0
142
1.0
142
0.0
142
0.0
142
0.0
142
0.0
142
1.0
179
     0
144
0.0208333333333333
144
0.0
144
0.0
144
0.0
144
0.0
144
0.0208333333333333
144
0.0
144
0.0
144
0.0
144
0.0
144
1.0
144
0.0
144
0.0
144
0.0
144
0.0
144
1.0
147
0.0208333333333333
147
0.0
147
0.0
147
0.0
147
0.0
147
0.0208333333333333
147
0.0
147
0.0
147
0.0
147
0.0
147
1.0
147
0.0
147
0.0
147
0.0
147
0.0
147
1.0
  0
MATERIAL
  5
21
102
{ACAD_XDICTIONARY
360
22
102
}
102
{ACAD_REACTORS
330
10
102
}
330
10
100
AcDbMaterial
  1
Global
 72
     0
 43
0.0208333333333333
 43
0.0
 43
0.0
 43
0.0
 43
0.0
 43
0.0208333333333333
 43
0.0
 43
0.0
 43
0.0
 43
0.0
 43
1.0
 43
0.0
 43
0.0
 43
0.0
 43
0.0
 43
1.0
 77
     0
 47
0.0208333333333333
 47
0.0
 47
0.0
 47
0.0
 47
0.0
 47
0.0208333333333333
 47
0.0
 47
0.0
 47
0.0
 47
0.0
 47
1.0
 47
0.0
 47
0.0
 47
0.0
 47
0.0
 47
1.0
171
     0
 49
0.0208333333333333
 49
0.0
 49
0.0
 49
0.0
 49
0.0
 49
0.0208333333333333
 49
0.0
 49
0.0
 49
0.0
 49
0.0
 49
1.0
 49
0.0
 49
0.0
 49
0.0
 49
0.0
 49
1.0
175
     0
142
0.0208333333333333
142
0.0
142
0.0
142
0.0
142
0.0
142
0.0208333333333333
142
0.0
142
0.0
142
0.0
142
0.0
142
1.0
142
0.0
142
0.0
142
0.0
142
0.0
142
1.0
179
     0
144
0.0208333333333333
144
0.0
144
0.0
144
0.0
144
0.0
144
0.0208333333333333
144
0.0
144
0.0
144
0.0
144
0.0
144
1.0
144
0.0
144
0.0
144
0.0
144
0.0
144
1.0
147
0.0208333333333333
147
0.0
147
0.0
147
0.0
147
0.0
147
0.0208333333333333
147
0.0
147
0.0
147
0.0
147
0.0
147
1.0
147
0.0
147
0.0
147
0.0
147
0.0
147
1.0
  0
MLEADERSTYLE
  5
67
102
{ACAD_REACTORS
330
66
102
}
330
66
100
AcDbMLeaderStyle
179
     2
170
     2
171
     1
172
     0
 90
        2
 40
0.0
 41
0.0
173
     1
 91
-1056964608
340
5B
 92
       -2
290
     1
 42
0.09
291
     1
 43
0.36
  3
Standard
 44
0.18
300

342
55
174
     1
178
     6
175
     1
176
     0
 93
-1056964608
 45
0.18
292
     0
297
     0
 46
0.18
 94
-1056964608
 47
1.0
 49
1.0
140
1.0
293
     1
141
0.0
294
     1
177
     0
142
1.0
295
     1
296
     0
143
0.125
271
     0
272
     9
273
     9
298
     1
  0
MLINESTYLE
  5
60
102
{ACAD_REACTORS
330
5F
102
}
330
5F
100
AcDbMlineStyle
  2
STANDARD
 70
     0
  3

 62
   256
 51
90.0
 52
90.0
 71
     2
 49
0.5
 62
   256
  6
BYLAYER
 49
-0.5
 62
   256
  6
BYLAYER
  0
ACDBPLACEHOLDER
  5
F
102
{ACAD_REACTORS
330
E
102
}
330
E
  0
SCALE
  5
43
102
{ACAD_REACTORS
330
42
102
}
330
42
100
AcDbScale
 70
     0
300
1:1
140
1.0
141
1.0
290
     1
  0
SCALE
  5
44
102
{ACAD_REACTORS
330
42
102
}
330
42
100
AcDbScale
 70
     0
300
1/128" = 1'-0"
140
0.0078125
141
12.0
290
     0
  0
SCALE
  5
45
102
{ACAD_REACTORS
330
42
102
}
330
42
100
AcDbScale
 70
     0
300
1/64" = 1'-0"
140
0.015625
141
12.0
290
     0
  0
SCALE
  5
46
102
{ACAD_REACTORS
330
42
102
}
330
42
100
AcDbScale
 70
     0
300
1/32" = 1'-0"
140
0.03125
141
12.0
290
     0
  0
SCALE
  5
47
102
{ACAD_REACTORS
330
42
102
}
330
42
100
AcDbScale
 70
     0
300
1/16" = 1'-0"
140
0.0625
141
12.0
290
     0
  0
SCALE
  5
48
102
{ACAD_REACTORS
330
42
102
}
330
42
100
AcDbScale
 70
     0
300
3/32" = 1'-0"
140
0.09375
141
12.0
290
     0
  0
SCALE
  5
49
102
{ACAD_REACTORS
330
42
102
}
330
42
100
AcDbScale
 70
     0
300
1/8" = 1'-0"
140
0.125
141
12.0
290
     0
  0
SCALE
  5
4A
102
{ACAD_REACTORS
330
42
102
}
330
42
100
AcDbScale
 70
     0
300
3/16" = 1'-0"
140
0.1875
141
12.0
290
     0
  0
SCALE
  5
4B
102
{ACAD_REACTORS
330
42
102
}
330
42
100
AcDbScale
 70
     0
300
1/4" = 1'-0"
140
0.25
141
12.0
290
     0
  0
SCALE
  5
4C
102
{ACAD_REACTORS
330
42
102
}
330
42
100
AcDbScale
 70
     0
300
3/8" = 1'-0"
140
0.375
141
12.0
290
     0
  0
SCALE
  5
4D
102
{ACAD_REACTORS
330
42
102
}
330
42
100
AcDbScale
 70
     0
300
1/2" = 1'-0"
140
0.5
141
12.0
290
     0
  0
SCALE
  5
4E
102
{ACAD_REACTORS
330
42
102
}
330
42
100
AcDbScale
 70
     0
300
3/4" = 1'-0"
140
0.75
141
12.0
290
     0
  0
SCALE
  5
4F
102
{ACAD_REACTORS
330
42
102
}
330
42
100
AcDbScale
 70
     0
300
1" = 1'-0"
140
1.0
141
12.0
290
     0
  0
SCALE
  5
50
102
{ACAD_REACTORS
330
42
102
}
330
42
100
AcDbScale
 70
     0
300
1-1/2" = 1'-0"
140
1.5
141
12.0
290
     0
  0
SCALE
  5
51
102
{ACAD_REACTORS
330
42
102
}
330
42
100
AcDbScale
 70
     0
300
3" = 1'-0"
140
3.0
141
12.0
290
     0
  0
SCALE
  5
52
102
{ACAD_REACTORS
330
42
102
}
330
42
100
AcDbScale
 70
     0
300
6" = 1'-0"
140
6.0
141
12.0
290
     0
  0
SCALE
  5
53
102
{ACAD_REACTORS
330
42
102
}
330
42
100
AcDbScale
 70
     0
300
1'-0" = 1'-0"
140
12.0
141
12.0
290
     0
  0
ACDBSECTIONVIEWSTYLE
  5
69
102
{ACAD_REACTORS
330
68
102
}
330
68
100
AcDbModelDocViewStyle
 70
     0
  3
Imperial24
290
     1
300
Imperial24
 90
        0
100
AcDbSectionViewStyle
 70
     0
 71
     0
 90
       78
 71
     1
340
55
 62
   256
 40
0.24
340
0
340
0
 62
   256
 40
0.24
300
I, O, Q, S, X, Z
 40
0.48
 90
        3
 40
0.18
 90
        1
 71
     2
340
5D
 90
       25
 62
   256
340
5D
 90
       50
 62
   256
 40
0.24
 40
0.0
 40
0.24
 71
     3
340
55
 62
   256
 40
0.24
 90
        1
 40
0.75
 90
        1
300
%<\AcVar ViewType \f "%tc1">% %<\AcVar ViewSectionStartId>%-%<\AcVar ViewSectionEndId>%\PSCALE %<\AcVar ViewScale \f "%sn">%
 71
     4
 62
   256
 62
   257
300
ANSI31
 40
1.0
 90
        0
290
     0
290
     0
 90
        6
 40
0.0
 40
1.570796326794896
 40
0.2617993877991494
 40
1.308996938995747
 40
-0.2617993877991494
 40
1.832595714594046
  0
TABLESTYLE
  5
65
102
{ACAD_XDICTIONARY
360
3DA
102
}
102
{ACAD_REACTORS
330
64
102
}
330
64
100
AcDbTableStyle
280
     0
  3
Standard
 70
     0
 71
     0
 40
0.06
 41
0.06
280
     0
281
     0
  7
Standard
140
0.18
170
     2
 62
     0
 63
     7
283
     0
 90
      512
 91
        0
  1

274
    -2
284
     1
 64
     0
275
    -2
285
     1
 65
     0
276
    -2
286
     1
 66
     0
277
    -2
287
     1
 67
     0
278
    -2
288
     1
 68
     0
279
    -2
289
     1
 69
     0
  7
Standard
140
0.25
170
     5
 62
     0
 63
     7
283
     0
 90
      512
 91
        0
  1

274
    -2
284
     1
 64
     0
275
    -2
285
     1
 65
     0
276
    -2
286
     1
 66
     0
277
    -2
287
     1
 67
     0
278
    -2
288
     1
 68
     0
279
    -2
289
     1
 69
     0
  7
Standard
140
0.18
170
     5
 62
     0
 63
     7
283
     0
 90
      512
 91
        0
  1

274
    -2
284
     1
 64
     0
275
    -2
285
     1
 65
     0
276
    -2
286
     1
 66
     0
277
    -2
287
     1
 67
     0
278
    -2
288
     1
 68
     0
279
    -2
289
     1
 69
     0
  0
VISUALSTYLE
  5
2F
102
{ACAD_REACTORS
330
29
102
}
330
29
100
AcDbVisualStyle
  2
2dWireframe
 70
     4
177
     3
291
     0
 70
    58
 90
        0
176
     1
 90
        2
176
     1
 90
        0
176
     1
 90
        0
176
     1
 40
0.6
176
     1
 40
30.0
176
     1
 62
     7
420
 16777215
176
     1
 90
        1
176
     1
 90
        4
176
     1
 62
     7
176
     1
 62
   257
176
     1
 90
        1
176
     1
 90
        1
176
     1
 40
1.0
176
     1
 90
        0
176
     1
 62
   257
176
     1
 40
1.0
176
     1
 90
        1
176
     1
 90
        6
176
     1
 90
        2
176
     1
 62
     7
176
     1
 90
        5
176
     1
 90
        0
176
     1
 90
        0
176
     1
290
     0
176
     1
 90
        1
176
     1
 40
0.0
176
     1
 90
        0
176
     1
290
     1
176
     1
290
     1
176
     1
290
     0
176
     1
290
     0
176
     1
290
     0
176
     1
290
     0
176
     1
290
     0
176
     1
290
     0
176
     1
290
     0
176
     1
 90
       50
176
     1
 40
0.0
176
     1
 40
1.0
176
     1
 90
        0
176
     1
 62
    18
420
        0
176
     1
 90
       50
176
     1
 90
        3
176
     1
 62
     5
420
      255
176
     1
290
     0
176
     1
 90
       50
176
     1
 90
       50
176
     1
 90
       50
176
     1
290
     0
176
     1
 90
       50
176
     1
 62
   256
176
     0
 40
1.0
176
     0
 90
        2
176
     1
  1
strokes_ogs.tif
176
     1
290
     0
176
     1
 40
1.0
176
     1
 40
1.0
176
     1
  0
VISUALSTYLE
  5
2E
102
{ACAD_REACTORS
330
29
102
}
330
29
100
AcDbVisualStyle
  2
Basic
 70
     7
177
     3
291
     1
 70
    58
 90
        1
176
     1
 90
        0
176
     1
 90
        1
176
     1
 90
        0
176
     1
 40
0.6
176
     1
 40
30.0
176
     1
 62
     7
420
 16777215
176
     1
 90
        0
176
     1
 90
        4
176
     1
 62
     7
176
     1
 62
   257
176
     1
 90
        1
176
     1
 90
        1
176
     1
 40
1.0
176
     1
 90
        8
176
     1
 62
     7
176
     1
 40
1.0
176
     1
 90
        1
176
     1
 90
        6
176
     1
 90
        2
176
     1
 62
     7
176
     1
 90
        5
176
     1
 90
        0
176
     1
 90
        0
176
     1
290
     0
176
     1
 90
        1
176
     1
 40
0.0
176
     1
 90
        0
176
     1
290
     0
176
     1
290
     1
176
     1
290
     1
176
     1
290
     0
176
     1
290
     0
176
     1
290
     0
176
     1
290
     0
176
     1
290
     0
176
     1
290
     0
176
     1
 90
       50
176
     1
 40
0.0
176
     1
 40
1.0
176
     1
 90
        0
176
     1
 62
    18
420
        0
176
     1
 90
       50
176
     1
 90
        3
176
     1
 62
     5
420
      255
176
     1
290
     0
176
     1
 90
       50
176
     1
 90
       50
176
     1
 90
       50
176
     1
290
     0
176
     1
 90
       50
176
     1
 62
   256
176
     0
 40
1.0
176
     0
 90
        2
176
     1
  1
strokes_ogs.tif
176
     1
290
     0
176
     1
 40
1.0
176
     1
 40
1.0
176
     1
  0
VISUALSTYLE
  5
35
102
{ACAD_REACTORS
330
29
102
}
330
29
100
AcDbVisualStyle
  2
Brighten
 70
    12
177
     3
291
     1
 70
    58
 90
        2
176
     1
 90
        2
176
     1
 90
        0
176
     1
 90
        0
176
     1
 40
0.6
176
     1
 40
30.0
176
     1
 62
     7
420
 16777215
176
     1
 90
        1
176
     1
 90
        4
176
     1
 62
     7
176
     1
 62
   257
176
     1
 90
        1
176
     1
 90
        1
176
     1
 40
1.0
176
     1
 90
        8
176
     1
 62
     7
176
     1
 40
1.0
176
     1
 90
        1
176
     1
 90
        6
176
     1
 90
        2
176
     1
 62
     7
176
     1
 90
        5
176
     1
 90
        0
176
     1
 90
        0
176
     1
290
     0
176
     1
 90
        1
176
     1
 40
50.0
176
     1
 90
        0
176
     1
290
     0
176
     1
290
     1
176
     1
290
     1
176
     1
290
     0
176
     1
290
     0
176
     1
290
     0
176
     1
290
     0
176
     1
290
     0
176
     1
290
     0
176
     1
 90
       50
176
     1
 40
0.0
176
     1
 40
1.0
176
     1
 90
        0
176
     1
 62
    18
420
        0
176
     1
 90
       50
176
     1
 90
        3
176
     1
 62
     5
420
      255
176
     1
290
     0
176
     1
 90
       50
176
     1
 90
       50
176
     1
 90
       50
176
     1
290
     0
176
     1
 90
       50
176
     1
 62
   256
176
     0
 40
1.0
176
     0
 90
        2
176
     1
  1
strokes_ogs.tif
176
     1
290
     0
176
     1
 40
1.0
176
     1
 40
1.0
176
     1
  0
VISUALSTYLE
  5
39
102
{ACAD_REACTORS
330
29
102
}
330
29
100
AcDbVisualStyle
  2
ColorChange
 70
    16
177
     3
291
     1
 70
    58
 90
        2
176
     1
 90
        2
176
     1
 90
        3
176
     1
 90
        0
176
     1
 40
0.6
176
     1
 40
30.0
176
     1
 62
     8
420
  8421504
176
     1
 90
        1
176
     1
 90
        4
176
     1
 62
     7
176
     1
 62
   257
176
     1
 90
        1
176
     1
 90
        1
176
     1
 40
1.0
176
     1
 90
        8
176
     1
 62
     8
420
  8421504
176
     1
 40
1.0
176
     1
 90
        1
176
     1
 90
        6
176
     1
 90
        2
176
     1
 62
     7
176
     1
 90
        5
176
     1
 90
        0
176
     1
 90
        0
176
     1
290
     0
176
     1
 90
        1
176
     1
 40
0.0
176
     1
 90
        0
176
     1
290
     0
176
     1
290
     1
176
     1
290
     1
176
     1
290
     0
176
     1
290
     0
176
     1
290
     0
176
     1
290
     0
176
     1
290
     0
176
     1
290
     0
176
     1
 90
       50
176
     1
 40
0.0
176
     1
 40
1.0
176
     1
 90
        0
176
     1
 62
    18
420
        0
176
     1
 90
       50
176
     1
 90
        3
176
     1
 62
     5
420
      255
176
     1
290
     0
176
     1
 90
       50
176
     1
 90
       50
176
     1
 90
       50
176
     1
290
     0
176
     1
 90
       50
176
     1
 62
   256
176
     0
 40
1.0
176
     0
 90
        2
176
     1
  1
strokes_ogs.tif
176
     1
290
     0
176
     1
 40
1.0
176
     1
 40
1.0
176
     1
  0
VISUALSTYLE
  5
32
102
{ACAD_REACTORS
330
29
102
}
330
29
100
AcDbVisualStyle
  2
Conceptual
 70
     9
177
     3
291
     0
 70
    58
 90
        3
176
     1
 90
        2
176
     1
 90
        0
176
     1
 90
        0
176
     1
 40
0.6
176
     1
 40
30.0
176
     1
 62
     7
420
 16777215
176
     1
 90
        2
176
     1
 90
        2
176
     1
 62
     7
176
     1
 62
   257
176
     1
 90
        1
176
     1
 90
        1
176
     1
 40
179.0
176
     1
 90
        8
176
     1
 62
     7
176
     1
 40
1.0
176
     1
 90
        1
176
     1
 90
        6
176
     1
 90
        2
176
     1
 62
     7
176
     1
 90
        3
176
     1
 90
        0
176
     1
 90
        0
176
     1
290
     0
176
     1
 90
        1
176
     1
 40
0.0
176
     1
 90
        0
176
     1
290
     0
176
     1
290
     1
176
     1
290
     1
176
     1
290
     0
176
     1
290
     0
176
     1
290
     0
176
     1
290
     0
176
     1
290
     0
176
     1
290
     0
176
     1
 90
       50
176
     1
 40
0.0
176
     1
 40
1.0
176
     1
 90
        0
176
     1
 62
    18
420
        0
176
     1
 90
       50
176
     1
 90
        3
176
     1
 62
     5
420
      255
176
     1
290
     0
176
     1
 90
       50
176
     1
 90
       50
176
     1
 90
       50
176
     1
290
     0
176
     1
 90
       50
176
     1
 62
   256
176
     0
 40
1.0
176
     0
 90
        2
176
     1
  1
strokes_ogs.tif
176
     1
290
     0
176
     1
 40
1.0
176
     1
 40
1.0
176
     1
  0
VISUALSTYLE
  5
34
102
{ACAD_REACTORS
330
29
102
}
330
29
100
AcDbVisualStyle
  2
Dim
 70
    11
177
     3
291
     1
 70
    58
 90
        2
176
     1
 90
        2
176
     1
 90
        0
176
     1
 90
        0
176
     1
 40
0.6
176
     1
 40
30.0
176
     1
 62
     7
420
 16777215
176
     1
 90
        1
176
     1
 90
        4
176
     1
 62
     7
176
     1
 62
   257
176
     1
 90
        1
176
     1
 90
        1
176
     1
 40
1.0
176
     1
 90
        8
176
     1
 62
     7
176
     1
 40
1.0
176
     1
 90
        1
176
     1
 90
        6
176
     1
 90
        2
176
     1
 62
     7
176
     1
 90
        5
176
     1
 90
        0
176
     1
 90
        0
176
     1
290
     0
176
     1
 90
        1
176
     1
 40
-50.0
176
     1
 90
        0
176
     1
290
     0
176
     1
290
     1
176
     1
290
     1
176
     1
290
     0
176
     1
290
     0
176
     1
290
     0
176
     1
290
     0
176
     1
290
     0
176
     1
290
     0
176
     1
 90
       50
176
     1
 40
0.0
176
     1
 40
1.0
176
     1
 90
        0
176
     1
 62
    18
420
        0
176
     1
 90
       50
176
     1
 90
        3
176
     1
 62
     5
420
      255
176
     1
290
     0
176
     1
 90
       50
176
     1
 90
       50
176
     1
 90
       50
176
     1
290
     0
176
     1
 90
       50
176
     1
 62
   256
176
     0
 40
1.0
176
     0
 90
        2
176
     1
  1
strokes_ogs.tif
176
     1
290
     0
176
     1
 40
1.0
176
     1
 40
1.0
176
     1
  0
VISUALSTYLE
  5
41
102
{ACAD_REACTORS
330
29
102
}
330
29
100
AcDbVisualStyle
  2
EdgeColorOff
 70
    22
177
     3
291
     1
 70
    58
 90
        2
176
     0
 90
        2
176
     0
 90
        0
176
     0
 90
        0
176
     0
 40
0.6
176
     0
 40
30.0
176
     0
 62
     7
420
 16777215
176
     0
 90
        1
176
     0
 90
        4
176
     0
 62
     7
176
     0
 62
   257
176
     0
 90
        1
176
     0
 90
        1
176
     0
 40
1.0
176
     0
 90
        8
176
     2
 62
     7
176
     0
 40
1.0
176
     0
 90
        1
176
     0
 90
        6
176
     0
 90
        2
176
     0
 62
     7
176
     0
 90
        5
176
     0
 90
        0
176
     0
 90
        0
176
     0
290
     0
176
     0
 90
        1
176
     0
 40
0.0
176
     0
 90
        0
176
     0
290
     0
176
     0
290
     1
176
     0
290
     1
176
     0
290
     0
176
     0
290
     0
176
     0
290
     0
176
     0
290
     0
176
     0
290
     0
176
     0
290
     0
176
     0
 90
       50
176
     0
 40
0.0
176
     0
 40
1.0
176
     0
 90
        0
176
     0
 62
    18
420
        0
176
     0
 90
       50
176
     0
 90
        3
176
     0
 62
     5
420
      255
176
     0
290
     0
176
     0
 90
       50
176
     0
 90
       50
176
     0
 90
       50
176
     0
290
     0
176
     0
 90
       50
176
     0
 62
   256
176
     0
 40
1.0
176
     0
 90
        2
176
     0
  1
strokes_ogs.tif
176
     0
290
     0
176
     0
 40
1.0
176
     0
 40
1.0
176
     0
  0
VISUALSTYLE
  5
38
102
{ACAD_REACTORS
330
29
102
}
330
29
100
AcDbVisualStyle
  2
Facepattern
 70
    15
177
     3
291
     1
 70
    58
 90
        2
176
     1
 90
        2
176
     1
 90
        0
176
     1
 90
        0
176
     1
 40
0.6
176
     1
 40
30.0
176
     1
 62
     7
420
 16777215
176
     1
 90
        1
176
     1
 90
        4
176
     1
 62
     7
176
     1
 62
   257
176
     1
 90
        1
176
     1
 90
        1
176
     1
 40
1.0
176
     1
 90
        8
176
     1
 62
     7
176
     1
 40
1.0
176
     1
 90
        1
176
     1
 90
        6
176
     1
 90
        2
176
     1
 62
     7
176
     1
 90
        5
176
     1
 90
        0
176
     1
 90
        0
176
     1
290
     0
176
     1
 90
        1
176
     1
 40
0.0
176
     1
 90
        0
176
     1
290
     0
176
     1
290
     1
176
     1
290
     1
176
     1
290
     0
176
     1
290
     0
176
     1
290
     0
176
     1
290
     0
176
     1
290
     0
176
     1
290
     0
176
     1
 90
       50
176
     1
 40
0.0
176
     1
 40
1.0
176
     1
 90
        0
176
     1
 62
    18
420
        0
176
     1
 90
       50
176
     1
 90
        3
176
     1
 62
     5
420
      255
176
     1
290
     0
176
     1
 90
       50
176
     1
 90
       50
176
     1
 90
       50
176
     1
290
     0
176
     1
 90
       50
176
     1
 62
   256
176
     0
 40
1.0
176
     0
 90
        2
176
     1
  1
strokes_ogs.tif
176
     1
290
     0
176
     1
 40
1.0
176
     1
 40
1.0
176
     1
  0
VISUALSTYLE
  5
2A
102
{ACAD_REACTORS
330
29
102
}
330
29
100
AcDbVisualStyle
  2
Flat
 70
     0
177
     3
291
     1
 70
    58
 90
        2
176
     1
 90
        1
176
     1
 90
        1
176
     1
 90
        2
176
     1
 40
0.6
176
     1
 40
30.0
176
     1
 62
     7
420
 16777215
176
     1
 90
        0
176
     1
 90
        0
176
     1
 62
     7
176
     1
 62
   257
176
     1
 90
        1
176
     1
 90
        1
176
     1
 40
1.0
176
     1
 90
        8
176
     1
 62
     7
176
     1
 40
1.0
176
     1
 90
        1
176
     1
 90
        6
176
     1
 90
        2
176
     1
 62
     7
176
     1
 90
        5
176
     1
 90
        0
176
     1
 90
        0
176
     1
290
     0
176
     1
 90
       13
176
     1
 40
0.0
176
     1
 90
        0
176
     1
290
     0
176
     1
290
     1
176
     1
290
     1
176
     1
290
     0
176
     1
290
     0
176
     1
290
     0
176
     1
290
     0
176
     1
290
     0
176
     1
290
     0
176
     1
 90
       50
176
     1
 40
0.0
176
     1
 40
1.0
176
     1
 90
        0
176
     1
 62
    18
420
        0
176
     1
 90
       50
176
     1
 90
        3
176
     1
 62
     5
420
      255
176
     1
290
     0
176
     1
 90
       50
176
     1
 90
       50
176
     1
 90
       50
176
     1
290
     0
176
     1
 90
       50
176
     1
 62
   256
176
     0
 40
1.0
176
     0
 90
        2
176
     1
  1
strokes_ogs.tif
176
     1
290
     0
176
     1
 40
1.0
176
     1
 40
1.0
176
     1
  0
VISUALSTYLE
  5
2B
102
{ACAD_REACTORS
330
29
102
}
330
29
100
AcDbVisualStyle
  2
FlatWithEdges
 70
     1
177
     3
291
     1
 70
    58
 90
        2
176
     1
 90
        1
176
     1
 90
        1
176
     1
 90
        2
176
     1
 40
0.6
176
     1
 40
30.0
176
     1
 62
     7
420
 16777215
176
     1
 90
        1
176
     1
 90
        0
176
     1
 62
     7
176
     1
 62
   257
176
     1
 90
        1
176
     1
 90
        1
176
     1
 40
1.0
176
     1
 90
        0
176
     1
 62
   257
176
     1
 40
1.0
176
     1
 90
        1
176
     1
 90
        6
176
     1
 90
        2
176
     1
 62
     7
176
     1
 90
        5
176
     1
 90
        0
176
     1
 90
        0
176
     1
290
     0
176
     1
 90
       13
176
     1
 40
0.0
176
     1
 90
        0
176
     1
290
     0
176
     1
290
     1
176
     1
290
     1
176
     1
290
     0
176
     1
290
     0
176
     1
290
     0
176
     1
290
     0
176
     1
290
     0
176
     1
290
     0
176
     1
 90
       50
176
     1
 40
0.0
176
     1
 40
1.0
176
     1
 90
        0
176
     1
 62
    18
420
        0
176
     1
 90
       50
176
     1
 90
        3
176
     1
 62
     5
420
      255
176
     1
290
     0
176
     1
 90
       50
176
     1
 90
       50
176
     1
 90
       50
176
     1
290
     0
176
     1
 90
       50
176
     1
 62
   256
176
     0
 40
1.0
176
     0
 90
        2
176
     1
  1
strokes_ogs.tif
176
     1
290
     0
176
     1
 40
1.0
176
     1
 40
1.0
176
     1
  0
VISUALSTYLE
  5
2C
102
{ACAD_REACTORS
330
29
102
}
330
29
100
AcDbVisualStyle
  2
Gouraud
 70
     2
177
     3
291
     1
 70
    58
 90
        2
176
     1
 90
        2
176
     1
 90
        1
176
     1
 90
        2
176
     1
 40
0.6
176
     1
 40
30.0
176
     1
 62
     7
420
 16777215
176
     1
 90
        0
176
     1
 90
        0
176
     1
 62
     7
176
     1
 62
   257
176
     1
 90
        1
176
     1
 90
        1
176
     1
 40
1.0
176
     1
 90
        0
176
     1
 62
     7
176
     1
 40
1.0
176
     1
 90
        1
176
     1
 90
        6
176
     1
 90
        2
176
     1
 62
     7
176
     1
 90
        5
176
     1
 90
        0
176
     1
 90
        0
176
     1
290
     0
176
     1
 90
       13
176
     1
 40
0.0
176
     1
 90
        0
176
     1
290
     0
176
     1
290
     1
176
     1
290
     1
176
     1
290
     0
176
     1
290
     0
176
     1
290
     0
176
     1
290
     0
176
     1
290
     0
176
     1
290
     0
176
     1
 90
       50
176
     1
 40
0.0
176
     1
 40
1.0
176
     1
 90
        0
176
     1
 62
    18
420
        0
176
     1
 90
       50
176
     1
 90
        3
176
     1
 62
     5
420
      255
176
     1
290
     0
176
     1
 90
       50
176
     1
 90
       50
176
     1
 90
       50
176
     1
290
     0
176
     1
 90
       50
176
     1
 62
   256
176
     0
 40
1.0
176
     0
 90
        2
176
     1
  1
strokes_ogs.tif
176
     1
290
     0
176
     1
 40
1.0
176
     1
 40
1.0
176
     1
  0
VISUALSTYLE
  5
2D
102
{ACAD_REACTORS
330
29
102
}
330
29
100
AcDbVisualStyle
  2
GouraudWithEdges
 70
     3
177
     3
291
     1
 70
    58
 90
        2
176
     1
 90
        2
176
     1
 90
        1
176
     1
 90
        2
176
     1
 40
0.6
176
     1
 40
30.0
176
     1
 62
     7
420
 16777215
176
     1
 90
        1
176
     1
 90
        0
176
     1
 62
     7
176
     1
 62
   257
176
     1
 90
        1
176
     1
 90
        1
176
     1
 40
1.0
176
     1
 90
        0
176
     1
 62
   257
176
     1
 40
1.0
176
     1
 90
        1
176
     1
 90
        6
176
     1
 90
        2
176
     1
 62
     7
176
     1
 90
        5
176
     1
 90
        0
176
     1
 90
        0
176
     1
290
     0
176
     1
 90
       13
176
     1
 40
0.0
176
     1
 90
        0
176
     1
290
     0
176
     1
290
     1
176
     1
290
     1
176
     1
290
     0
176
     1
290
     0
176
     1
290
     0
176
     1
290
     0
176
     1
290
     0
176
     1
290
     0
176
     1
 90
       50
176
     1
 40
0.0
176
     1
 40
1.0
176
     1
 90
        0
176
     1
 62
    18
420
        0
176
     1
 90
       50
176
     1
 90
        3
176
     1
 62
     5
420
      255
176
     1
290
     0
176
     1
 90
       50
176
     1
 90
       50
176
     1
 90
       50
176
     1
290
     0
176
     1
 90
       50
176
     1
 62
   256
176
     0
 40
1.0
176
     0
 90
        2
176
     1
  1
strokes_ogs.tif
176
     1
290
     0
176
     1
 40
1.0
176
     1
 40
1.0
176
     1
  0
VISUALSTYLE
  5
31
102
{ACAD_REACTORS
330
29
102
}
330
29
100
AcDbVisualStyle
  2
Hidden
 70
     6
177
     3
291
     0
 70
    58
 90
        1
176
     1
 90
        2
176
     1
 90
        2
176
     1
 90
        0
176
     1
 40
0.6
176
     1
 40
30.0
176
     1
 62
     7
420
 16777215
176
     1
 90
        2
176
     1
 90
        2
176
     1
 62
     7
176
     1
 62
   257
176
     1
 90
        2
176
     1
 90
        1
176
     1
 40
40.0
176
     1
 90
        0
176
     1
 62
   257
176
     1
 40
1.0
176
     1
 90
        1
176
     1
 90
        6
176
     1
 90
        2
176
     1
 62
     7
176
     1
 90
        3
176
     1
 90
        0
176
     1
 90
        0
176
     1
290
     0
176
     1
 90
        1
176
     1
 40
0.0
176
     1
 90
        0
176
     1
290
     0
176
     1
290
     1
176
     1
290
     1
176
     1
290
     0
176
     1
290
     0
176
     1
290
     0
176
     1
290
     0
176
     1
290
     0
176
     1
290
     0
176
     1
 90
       50
176
     1
 40
0.0
176
     1
 40
1.0
176
     1
 90
        0
176
     1
 62
    18
420
        0
176
     1
 90
       50
176
     1
 90
        3
176
     1
 62
     5
420
      255
176
     1
290
     0
176
     1
 90
       50
176
     1
 90
       50
176
     1
 90
       50
176
     1
290
     0
176
     1
 90
       50
176
     1
 62
   256
176
     0
 40
1.0
176
     0
 90
        2
176
     1
  1
strokes_ogs.tif
176
     1
290
     0
176
     1
 40
1.0
176
     1
 40
1.0
176
     1
  0
VISUALSTYLE
  5
3F
102
{ACAD_REACTORS
330
29
102
}
330
29
100
AcDbVisualStyle
  2
JitterOff
 70
    20
177
     3
291
     1
 70
    58
 90
        2
176
     0
 90
        2
176
     0
 90
        0
176
     0
 90
        0
176
     0
 40
0.6
176
     0
 40
30.0
176
     0
 62
     7
420
 16777215
176
     0
 90
        1
176
     0
 90
        4
176
     0
 62
     7
176
     0
 62
   257
176
     0
 90
        1
176
     0
 90
        1
176
     0
 40
1.0
176
     0
 90
       10
176
     2
 62
     7
176
     0
 40
1.0
176
     0
 90
        1
176
     0
 90
        6
176
     0
 90
        2
176
     0
 62
     7
176
     0
 90
        5
176
     0
 90
        0
176
     0
 90
        0
176
     0
290
     0
176
     0
 90
        1
176
     0
 40
0.0
176
     0
 90
        0
176
     0
290
     0
176
     0
290
     1
176
     0
290
     1
176
     0
290
     0
176
     0
290
     0
176
     0
290
     0
176
     0
290
     0
176
     0
290
     0
176
     0
290
     0
176
     0
 90
       50
176
     0
 40
0.0
176
     0
 40
1.0
176
     0
 90
        0
176
     0
 62
    18
420
        0
176
     0
 90
       50
176
     0
 90
        3
176
     0
 62
     5
420
      255
176
     0
290
     0
176
     0
 90
       50
176
     0
 90
       50
176
     0
 90
       50
176
     0
290
     0
176
     0
 90
       50
176
     0
 62
   256
176
     0
 40
1.0
176
     0
 90
        2
176
     0
  1
strokes_ogs.tif
176
     0
290
     0
176
     0
 40
1.0
176
     0
 40
1.0
176
     0
  0
VISUALSTYLE
  5
37
102
{ACAD_REACTORS
330
29
102
}
330
29
100
AcDbVisualStyle
  2
Linepattern
 70
    14
177
     3
291
     1
 70
    58
 90
        2
176
     1
 90
        2
176
     1
 90
        0
176
     1
 90
        0
176
     1
 40
0.6
176
     1
 40
30.0
176
     1
 62
     7
420
 16777215
176
     1
 90
        1
176
     1
 90
        4
176
     1
 62
     7
176
     1
 62
   257
176
     1
 90
        7
176
     1
 90
        7
176
     1
 40
1.0
176
     1
 90
        8
176
     1
 62
     7
176
     1
 40
1.0
176
     1
 90
        1
176
     1
 90
        6
176
     1
 90
        2
176
     1
 62
     7
176
     1
 90
        5
176
     1
 90
        0
176
     1
 90
        0
176
     1
290
     0
176
     1
 90
        1
176
     1
 40
0.0
176
     1
 90
        0
176
     1
290
     0
176
     1
290
     1
176
     1
290
     1
176
     1
290
     0
176
     1
290
     0
176
     1
290
     0
176
     1
290
     0
176
     1
290
     0
176
     1
290
     0
176
     1
 90
       50
176
     1
 40
0.0
176
     1
 40
1.0
176
     1
 90
        0
176
     1
 62
    18
420
        0
176
     1
 90
       50
176
     1
 90
        3
176
     1
 62
     5
420
      255
176
     1
290
     0
176
     1
 90
       50
176
     1
 90
       50
176
     1
 90
       50
176
     1
290
     0
176
     1
 90
       50
176
     1
 62
   256
176
     0
 40
1.0
176
     0
 90
        2
176
     1
  1
strokes_ogs.tif
176
     1
290
     0
176
     1
 40
1.0
176
     1
 40
1.0
176
     1
  0
VISUALSTYLE
  5
40
102
{ACAD_REACTORS
330
29
102
}
330
29
100
AcDbVisualStyle
  2
OverhangOff
 70
    21
177
     3
291
     1
 70
    58
 90
        2
176
     0
 90
        2
176
     0
 90
        0
176
     0
 90
        0
176
     0
 40
0.6
176
     0
 40
30.0
176
     0
 62
     7
420
 16777215
176
     0
 90
        1
176
     0
 90
        4
176
     0
 62
     7
176
     0
 62
   257
176
     0
 90
        1
176
     0
 90
        1
176
     0
 40
1.0
176
     0
 90
        9
176
     2
 62
     7
176
     0
 40
1.0
176
     0
 90
        1
176
     0
 90
        6
176
     0
 90
        2
176
     0
 62
     7
176
     0
 90
        5
176
     0
 90
        0
176
     0
 90
        0
176
     0
290
     0
176
     0
 90
        1
176
     0
 40
0.0
176
     0
 90
        0
176
     0
290
     0
176
     0
290
     1
176
     0
290
     1
176
     0
290
     0
176
     0
290
     0
176
     0
290
     0
176
     0
290
     0
176
     0
290
     0
176
     0
290
     0
176
     0
 90
       50
176
     0
 40
0.0
176
     0
 40
1.0
176
     0
 90
        0
176
     0
 62
    18
420
        0
176
     0
 90
       50
176
     0
 90
        3
176
     0
 62
     5
420
      255
176
     0
290
     0
176
     0
 90
       50
176
     0
 90
       50
176
     0
 90
       50
176
     0
290
     0
176
     0
 90
       50
176
     0
 62
   256
176
     0
 40
1.0
176
     0
 90
        2
176
     0
  1
strokes_ogs.tif
176
     0
290
     0
176
     0
 40
1.0
176
     0
 40
1.0
176
     0
  0
VISUALSTYLE
  5
33
102
{ACAD_REACTORS
330
29
102
}
330
29
100
AcDbVisualStyle
  2
Realistic
 70
     8
177
     3
291
     0
 70
    58
 90
        2
176
     1
 90
        3
176
     1
 90
        0
176
     1
 90
        2
176
     1
 40
0.6
176
     1
 40
30.0
176
     1
 62
     7
420
 16777215
176
     1
 90
        0
176
     1
 90
        0
176
     1
 62
     7
176
     1
 62
   257
176
     1
 90
        1
176
     1
 90
        1
176
     1
 40
1.0
176
     1
 90
        8
176
     1
 62
   257
176
     1
 40
1.0
176
     1
 90
        1
176
     1
 90
        6
176
     1
 90
        2
176
     1
 62
     7
176
     1
 90
        3
176
     1
 90
        0
176
     1
 90
        0
176
     1
290
     0
176
     1
 90
       13
176
     1
 40
0.0
176
     1
 90
        0
176
     1
290
     0
176
     1
290
     1
176
     1
290
     1
176
     1
290
     0
176
     1
290
     0
176
     1
290
     0
176
     1
290
     0
176
     1
290
     0
176
     1
290
     0
176
     1
 90
       50
176
     1
 40
0.0
176
     1
 40
1.0
176
     1
 90
        0
176
     1
 62
    18
420
        0
176
     1
 90
       50
176
     1
 90
        3
176
     1
 62
     5
420
      255
176
     1
290
     0
176
     1
 90
       50
176
     1
 90
       50
176
     1
 90
       50
176
     1
290
     0
176
     1
 90
       50
176
     1
 62
   256
176
     0
 40
1.0
176
     0
 90
        2
176
     1
  1
strokes_ogs.tif
176
     1
290
     0
176
     1
 40
1.0
176
     1
 40
1.0
176
     1
  0
VISUALSTYLE
  5
3D5
102
{ACAD_REACTORS
330
29
102
}
330
29
100
AcDbVisualStyle
  2

 70
     5
177
     3
291
     0
 70
    58
 90
        0
176
     1
 90
        2
176
     1
 90
        0
176
     1
 90
        0
176
     1
 40
0.6
176
     1
 40
30.0
176
     1
 62
     7
420
 16777215
176
     1
 90
        1
176
     1
 90
        4
176
     1
 62
     7
176
     1
 62
   257
176
     1
 90
        1
176
     1
 90
        1
176
     1
 40
1.0
176
     1
 90
        0
176
     1
 62
   257
176
     1
 40
1.0
176
     1
 90
        1
176
     1
 90
        6
176
     1
 90
        2
176
     1
 62
     7
176
     1
 90
        3
176
     1
 90
        0
176
     1
 90
        0
176
     1
290
     0
176
     1
 90
        1
176
     1
 40
0.0
176
     1
 90
        0
176
     1
290
     0
176
     1
290
     1
176
     1
290
     1
176
     1
290
     0
176
     1
290
     0
176
     1
290
     0
176
     1
290
     0
176
     1
290
     0
176
     1
290
     0
176
     1
 90
       50
176
     1
 40
0.0
176
     1
 40
1.0
176
     1
 90
        0
176
     1
 62
    18
420
        0
176
     1
 90
       50
176
     1
 90
        3
176
     1
 62
     5
420
      255
176
     1
290
     0
176
     1
 90
       50
176
     1
 90
       50
176
     1
 90
       50
176
     1
290
     0
176
     1
 90
       50
176
     1
 62
   256
176
     0
 40
1.0
176
     0
 90
        2
176
     1
  1
strokes_ogs.tif
176
     1
290
     0
176
     1
 40
1.0
176
     1
 40
1.0
176
     1
  0
VISUALSTYLE
  5
3E
102
{ACAD_REACTORS
330
29
102
}
330
29
100
AcDbVisualStyle
  2
Shaded
 70
    27
177
     3
291
     0
 70
    58
 90
        2
176
     1
 90
        2
176
     1
 90
        1
176
     1
 90
        2
176
     1
 40
0.6
176
     1
 40
30.0
176
     1
 62
     7
420
 16777215
176
     1
 90
        0
176
     1
 90
        4
176
     1
 62
     7
176
     1
 62
   257
176
     1
 90
        1
176
     1
 90
        1
176
     1
 40
1.0
176
     1
 90
        8
176
     1
 62
   257
176
     1
 40
1.0
176
     1
 90
        1
176
     1
 90
        6
176
     1
 90
        2
176
     1
 62
     8
420
  7895160
176
     1
 90
        3
176
     1
 90
        0
176
     1
 90
        0
176
     1
290
     0
176
     1
 90
        5
176
     1
 40
0.0
176
     1
 90
        0
176
     1
290
     0
176
     1
290
     1
176
     1
290
     1
176
     1
290
     0
176
     1
290
     0
176
     1
290
     0
176
     1
290
     0
176
     1
290
     0
176
     1
290
     0
176
     1
 90
       50
176
     1
 40
0.0
176
     1
 40
1.0
176
     1
 90
        0
176
     1
 62
    18
420
        0
176
     1
 90
       50
176
     1
 90
        3
176
     1
 62
     5
420
      255
176
     1
290
     0
176
     1
 90
       50
176
     1
 90
       50
176
     1
 90
       50
176
     1
290
     0
176
     1
 90
       50
176
     1
 62
   256
176
     0
 40
1.0
176
     0
 90
        2
176
     1
  1
strokes_ogs.tif
176
     1
290
     0
176
     1
 40
1.0
176
     1
 40
1.0
176
     1
  0
VISUALSTYLE
  5
3D
102
{ACAD_REACTORS
330
29
102
}
330
29
100
AcDbVisualStyle
  2
Shaded with edges
 70
    26
177
     3
291
     0
 70
    58
 90
        2
176
     1
 90
        2
176
     1
 90
        1
176
     1
 90
        2
176
     1
 40
0.6
176
     1
 40
30.0
176
     1
 62
     7
420
 16777215
176
     1
 90
        1
176
     1
 90
        2
176
     1
 62
     7
176
     1
 62
   257
176
     1
 90
        2
176
     1
 90
        1
176
     1
 40
1.0
176
     1
 90
        8
176
     1
 62
   257
176
     1
 40
1.0
176
     1
 90
        1
176
     1
 90
        6
176
     1
 90
        2
176
     1
 62
     7
176
     1
 90
        3
176
     1
 90
        0
176
     1
 90
        0
176
     1
290
     0
176
     1
 90
        5
176
     1
 40
0.0
176
     1
 90
        0
176
     1
290
     0
176
     1
290
     1
176
     1
290
     1
176
     1
290
     0
176
     1
290
     0
176
     1
290
     0
176
     1
290
     0
176
     1
290
     0
176
     1
290
     0
176
     1
 90
       50
176
     1
 40
0.0
176
     1
 40
1.0
176
     1
 90
        0
176
     1
 62
    18
420
        0
176
     1
 90
       50
176
     1
 90
        3
176
     1
 62
     5
420
      255
176
     1
290
     0
176
     1
 90
       50
176
     1
 90
       50
176
     1
 90
       50
176
     1
290
     0
176
     1
 90
       50
176
     1
 62
   256
176
     0
 40
1.0
176
     0
 90
        2
176
     1
  1
strokes_ogs.tif
176
     1
290
     0
176
     1
 40
1.0
176
     1
 40
1.0
176
     1
  0
VISUALSTYLE
  5
3A
102
{ACAD_REACTORS
330
29
102
}
330
29
100
AcDbVisualStyle
  2
Shades of Gray
 70
    23
177
     3
291
     0
 70
    58
 90
        2
176
     1
 90
        2
176
     1
 90
        3
176
     1
 90
        0
176
     1
 40
0.6
176
     1
 40
30.0
176
     1
 62
     7
420
 16777215
176
     1
 90
        2
176
     1
 90
        2
176
     1
 62
     7
176
     1
 62
     7
176
     1
 90
        1
176
     1
 90
        1
176
     1
 40
40.0
176
     1
 90
        8
176
     1
 62
     7
176
     1
 40
1.0
176
     1
 90
        1
176
     1
 90
        6
176
     1
 90
        2
176
     1
 62
     7
176
     1
 90
        3
176
     1
 90
        0
176
     1
 90
        0
176
     1
290
     0
176
     1
 90
        1
176
     1
 40
0.0
176
     1
 90
        0
176
     1
290
     0
176
     1
290
     1
176
     1
290
     1
176
     1
290
     0
176
     1
290
     0
176
     1
290
     0
176
     1
290
     0
176
     1
290
     0
176
     1
290
     0
176
     1
 90
       50
176
     1
 40
0.0
176
     1
 40
1.0
176
     1
 90
        0
176
     1
 62
    18
420
        0
176
     1
 90
       50
176
     1
 90
        3
176
     1
 62
     5
420
      255
176
     1
290
     0
176
     1
 90
       50
176
     1
 90
       50
176
     1
 90
       50
176
     1
290
     0
176
     1
 90
       50
176
     1
 62
   256
176
     0
 40
1.0
176
     0
 90
        2
176
     1
  1
strokes_ogs.tif
176
     1
290
     0
176
     1
 40
1.0
176
     1
 40
1.0
176
     1
  0
VISUALSTYLE
  5
3B
102
{ACAD_REACTORS
330
29
102
}
330
29
100
AcDbVisualStyle
  2
Sketchy
 70
    24
177
     3
291
     0
 70
    58
 90
        1
176
     1
 90
        2
176
     1
 90
        2
176
     1
 90
        0
176
     1
 40
0.6
176
     1
 40
30.0
176
     1
 62
     7
420
 16777215
176
     1
 90
        2
176
     1
 90
        2
176
     1
 62
     7
176
     1
 62
     7
176
     1
 90
        1
176
     1
 90
        1
176
     1
 40
40.0
176
     1
 90
       11
176
     1
 62
     7
176
     1
 40
1.0
176
     1
 90
        1
176
     1
 90
        6
176
     1
 90
        2
176
     1
 62
     7
176
     1
 90
        6
176
     1
 90
        0
176
     1
 90
        0
176
     1
290
     0
176
     1
 90
        1
176
     1
 40
0.0
176
     1
 90
        0
176
     1
290
     0
176
     1
290
     1
176
     1
290
     1
176
     1
290
     0
176
     1
290
     0
176
     1
290
     0
176
     1
290
     0
176
     1
290
     0
176
     1
290
     0
176
     1
 90
       50
176
     1
 40
0.0
176
     1
 40
1.0
176
     1
 90
        0
176
     1
 62
    18
420
        0
176
     1
 90
       50
176
     1
 90
        3
176
     1
 62
     5
420
      255
176
     1
290
     0
176
     1
 90
       50
176
     1
 90
       50
176
     1
 90
       50
176
     1
290
     0
176
     1
 90
       50
176
     1
 62
   256
176
     0
 40
1.0
176
     0
 90
        2
176
     1
  1
strokes_ogs.tif
176
     1
290
     0
176
     1
 40
1.0
176
     1
 40
1.0
176
     1
  0
VISUALSTYLE
  5
36
102
{ACAD_REACTORS
330
29
102
}
330
29
100
AcDbVisualStyle
  2
Thicken
 70
    13
177
     3
291
     1
 70
    58
 90
        2
176
     1
 90
        2
176
     1
 90
        0
176
     1
 90
        0
176
     1
 40
0.6
176
     1
 40
30.0
176
     1
 62
     7
420
 16777215
176
     1
 90
        1
176
     1
 90
        4
176
     1
 62
     7
176
     1
 62
   257
176
     1
 90
        1
176
     1
 90
        1
176
     1
 40
1.0
176
     1
 90
       12
176
     1
 62
     7
176
     1
 40
1.0
176
     1
 90
        1
176
     1
 90
        6
176
     1
 90
        2
176
     1
 62
     7
176
     1
 90
        5
176
     1
 90
        0
176
     1
 90
        0
176
     1
290
     0
176
     1
 90
        1
176
     1
 40
0.0
176
     1
 90
        0
176
     1
290
     0
176
     1
290
     1
176
     1
290
     1
176
     1
290
     0
176
     1
290
     0
176
     1
290
     0
176
     1
290
     0
176
     1
290
     0
176
     1
290
     0
176
     1
 90
       50
176
     1
 40
0.0
176
     1
 40
1.0
176
     1
 90
        0
176
     1
 62
    18
420
        0
176
     1
 90
       50
176
     1
 90
        3
176
     1
 62
     5
420
      255
176
     1
290
     0
176
     1
 90
       50
176
     1
 90
       50
176
     1
 90
       50
176
     1
290
     0
176
     1
 90
       50
176
     1
 62
   256
176
     0
 40
1.0
176
     0
 90
        2
176
     1
  1
strokes_ogs.tif
176
     1
290
     0
176
     1
 40
1.0
176
     1
 40
1.0
176
     1
  0
VISUALSTYLE
  5
30
102
{ACAD_REACTORS
330
29
102
}
330
29
100
AcDbVisualStyle
  2
Wireframe
 70
     5
177
     3
291
     0
 70
    58
 90
        0
176
     1
 90
        2
176
     1
 90
        0
176
     1
 90
        0
176
     1
 40
0.6
176
     1
 40
30.0
176
     1
 62
     7
420
 16777215
176
     1
 90
        1
176
     1
 90
        4
176
     1
 62
     7
176
     1
 62
   257
176
     1
 90
        1
176
     1
 90
        1
176
     1
 40
1.0
176
     1
 90
        0
176
     1
 62
   257
176
     1
 40
1.0
176
     1
 90
        1
176
     1
 90
        6
176
     1
 90
        2
176
     1
 62
     7
176
     1
 90
        3
176
     1
 90
        0
176
     1
 90
        0
176
     1
290
     0
176
     1
 90
        1
176
     1
 40
0.0
176
     1
 90
        0
176
     1
290
     0
176
     1
290
     1
176
     1
290
     1
176
     1
290
     0
176
     1
290
     0
176
     1
290
     0
176
     1
290
     0
176
     1
290
     0
176
     1
290
     0
176
     1
 90
       50
176
     1
 40
0.0
176
     1
 40
1.0
176
     1
 90
        0
176
     1
 62
    18
420
        0
176
     1
 90
       50
176
     1
 90
        3
176
     1
 62
     5
420
      255
176
     1
290
     0
176
     1
 90
       50
176
     1
 90
       50
176
     1
 90
       50
176
     1
290
     0
176
     1
 90
       50
176
     1
 62
   256
176
     0
 40
1.0
176
     0
 90
        2
176
     1
  1
strokes_ogs.tif
176
     1
290
     0
176
     1
 40
1.0
176
     1
 40
1.0
176
     1
  0
VISUALSTYLE
  5
3C
102
{ACAD_REACTORS
330
29
102
}
330
29
100
AcDbVisualStyle
  2
X-Ray
 70
    25
177
     3
291
     0
 70
    58
 90
        2
176
     1
 90
        2
176
     1
 90
        1
176
     1
 90
        1
176
     1
 40
0.5
176
     1
 40
30.0
176
     1
 62
     7
420
 16777215
176
     1
 90
        1
176
     1
 90
        0
176
     1
 62
     7
176
     1
 62
   257
176
     1
 90
        1
176
     1
 90
        1
176
     1
 40
1.0
176
     1
 90
        8
176
     1
 62
     7
176
     1
 40
1.0
176
     1
 90
        1
176
     1
 90
        6
176
     1
 90
        2
176
     1
 62
     7
176
     1
 90
        3
176
     1
 90
        0
176
     1
 90
        0
176
     1
290
     0
176
     1
 90
       13
176
     1
 40
0.0
176
     1
 90
        0
176
     1
290
     0
176
     1
290
     1
176
     1
290
     1
176
     1
290
     0
176
     1
290
     0
176
     1
290
     0
176
     1
290
     0
176
     1
290
     0
176
     1
290
     0
176
     1
 90
       50
176
     1
 40
0.0
176
     1
 40
1.0
176
     1
 90
        0
176
     1
 62
    18
420
        0
176
     1
 90
       50
176
     1
 90
        3
176
     1
 62
     5
420
      255
176
     1
290
     0
176
     1
 90
       50
176
     1
 90
       50
176
     1
 90
       50
176
     1
290
     0
176
     1
 90
       50
176
     1
 62
   256
176
     0
 40
1.0
176
     0
 90
        2
176
     1
  1
strokes_ogs.tif
176
     1
290
     0
176
     1
 40
1.0
176
     1
 40
1.0
176
     1
  0
DICTIONARYVAR
  5
80
102
{ACAD_REACTORS
330
7B
102
}
330
7B
100
DictionaryVariables
280
     0
  1
1:1
  0
DICTIONARYVAR
  5
7D
102
{ACAD_REACTORS
330
7B
102
}
330
7B
100
DictionaryVariables
280
     0
  1
STANDARD
  0
DICTIONARYVAR
  5
7C
102
{ACAD_REACTORS
330
7B
102
}
330
7B
100
DictionaryVariables
280
     0
  1
STANDARD
  0
DICTIONARYVAR
  5
7E
102
{ACAD_REACTORS
330
7B
102
}
330
7B
100
DictionaryVariables
280
     0
  1
Imperial24
  0
DICTIONARYVAR
  5
7F
102
{ACAD_REACTORS
330
7B
102
}
330
7B
100
DictionaryVariables
280
     0
  1
Imperial24
  0
XRECORD
  5
3D9
102
{ACAD_REACTORS
330
3D7
102
}
330
3D7
100
AcDbXrecord
280
     1
  1
BUILDING_ID
  1
Thermador_ME301YP_v01
  1
FLOOR_ID
  1
11723
  0
XRECORD
  5
3D8
102
{ACAD_REACTORS
330
3D7
102
}
330
3D7
100
AcDbXrecord
280
     1
  1
-2001350
  1
Specialty Equipment
  0
DICTIONARY
  5
1A
330
19
100
AcDbDictionary
280
     1
281
     1
  3
BUMPTILE
360
1C
  3
DIFFUSETILE
360
1B
  3
OPACITYTILE
360
1F
  3
REFLECTIONTILE
360
1E
  3
REFRACTIONTILE
360
20
  3
SPECULARTILE
360
1D
  0
DICTIONARY
  5
12
330
11
100
AcDbDictionary
280
     1
281
     1
  3
BUMPTILE
360
14
  3
DIFFUSETILE
360
13
  3
OPACITYTILE
360
17
  3
REFLECTIONTILE
360
16
  3
REFRACTIONTILE
360
18
  3
SPECULARTILE
360
15
  0
DICTIONARY
  5
22
330
21
100
AcDbDictionary
280
     1
281
     1
  3
BUMPTILE
360
24
  3
DIFFUSETILE
360
23
  3
OPACITYTILE
360
27
  3
REFLECTIONTILE
360
26
  3
REFRACTIONTILE
360
28
  3
SPECULARTILE
360
25
  0
DICTIONARY
  5
3DA
330
65
100
AcDbDictionary
280
     1
281
     1
  3
ACAD_ROUNDTRIP_2008_TABLESTYLE_CELLSTYLEMAP
360
3DB
  0
XRECORD
  5
1C
102
{ACAD_REACTORS
330
1A
102
}
330
1A
100
AcDbXrecord
280
     1
270
     1
271
     1
  0
XRECORD
  5
1B
102
{ACAD_REACTORS
330
1A
102
}
330
1A
100
AcDbXrecord
280
     1
270
     1
271
     1
  0
XRECORD
  5
1F
102
{ACAD_REACTORS
330
1A
102
}
330
1A
100
AcDbXrecord
280
     1
270
     1
271
     1
  0
XRECORD
  5
1E
102
{ACAD_REACTORS
330
1A
102
}
330
1A
100
AcDbXrecord
280
     1
270
     1
271
     1
  0
XRECORD
  5
20
102
{ACAD_REACTORS
330
1A
102
}
330
1A
100
AcDbXrecord
280
     1
270
     1
271
     1
  0
XRECORD
  5
1D
102
{ACAD_REACTORS
330
1A
102
}
330
1A
100
AcDbXrecord
280
     1
270
     1
271
     1
  0
XRECORD
  5
14
102
{ACAD_REACTORS
330
12
102
}
330
12
100
AcDbXrecord
280
     1
270
     1
271
     1
  0
XRECORD
  5
13
102
{ACAD_REACTORS
330
12
102
}
330
12
100
AcDbXrecord
280
     1
270
     1
271
     1
  0
XRECORD
  5
17
102
{ACAD_REACTORS
330
12
102
}
330
12
100
AcDbXrecord
280
     1
270
     1
271
     1
  0
XRECORD
  5
16
102
{ACAD_REACTORS
330
12
102
}
330
12
100
AcDbXrecord
280
     1
270
     1
271
     1
  0
XRECORD
  5
18
102
{ACAD_REACTORS
330
12
102
}
330
12
100
AcDbXrecord
280
     1
270
     1
271
     1
  0
XRECORD
  5
15
102
{ACAD_REACTORS
330
12
102
}
330
12
100
AcDbXrecord
280
     1
270
     1
271
     1
  0
XRECORD
  5
24
102
{ACAD_REACTORS
330
22
102
}
330
22
100
AcDbXrecord
280
     1
270
     1
271
     1
  0
XRECORD
  5
23
102
{ACAD_REACTORS
330
22
102
}
330
22
100
AcDbXrecord
280
     1
270
     1
271
     1
  0
XRECORD
  5
27
102
{ACAD_REACTORS
330
22
102
}
330
22
100
AcDbXrecord
280
     1
270
     1
271
     1
  0
XRECORD
  5
26
102
{ACAD_REACTORS
330
22
102
}
330
22
100
AcDbXrecord
280
     1
270
     1
271
     1
  0
XRECORD
  5
28
102
{ACAD_REACTORS
330
22
102
}
330
22
100
AcDbXrecord
280
     1
270
     1
271
     1
  0
XRECORD
  5
25
102
{ACAD_REACTORS
330
22
102
}
330
22
100
AcDbXrecord
280
     1
270
     1
271
     1
  0
CELLSTYLEMAP
  5
3DB
102
{ACAD_REACTORS
330
3DA
102
}
330
3DA
100
AcDbCellStyleMap
 90
        3
300
CELLSTYLE
  1
TABLEFORMAT_BEGIN
 90
        5
170
     1
 91
        0
 92
    32768
 62
   257
 93
        1
300
CONTENTFORMAT
  1
CONTENTFORMAT_BEGIN
 90
        0
 91
        0
 92
      512
 93
        0
300

 40
0.0
140
1.0
 94
        5
 62
     0
340
55
144
0.25
309
CONTENTFORMAT_END
171
     0
 94
        0
309
TABLEFORMAT_END
  1
CELLSTYLE_BEGIN
 90
        1
 91
        1
300
_TITLE
309
CELLSTYLE_END
300
CELLSTYLE
  1
TABLEFORMAT_BEGIN
 90
        5
170
     1
 91
        0
 92
        0
 62
   257
 93
        1
300
CONTENTFORMAT
  1
CONTENTFORMAT_BEGIN
 90
        0
 91
        0
 92
      512
 93
        0
300

 40
0.0
140
1.0
 94
        5
 62
     0
340
55
144
0.18
309
CONTENTFORMAT_END
171
     0
 94
        0
309
TABLEFORMAT_END
  1
CELLSTYLE_BEGIN
 90
        2
 91
        1
300
_HEADER
309
CELLSTYLE_END
300
CELLSTYLE
  1
TABLEFORMAT_BEGIN
 90
        5
170
     1
 91
        0
 92
        0
 62
   257
 93
        1
300
CONTENTFORMAT
  1
CONTENTFORMAT_BEGIN
 90
        0
 91
        0
 92
      512
 93
        0
300

 40
0.0
140
1.0
 94
        2
 62
     0
340
55
144
0.18
309
CONTENTFORMAT_END
171
     0
 94
        0
309
TABLEFORMAT_END
  1
CELLSTYLE_BEGIN
 90
        3
 91
        2
300
_DATA
309
CELLSTYLE_END
  0
ENDSEC
  0
EOF
